PrimaNota.ru - самый крупный в мире бесплатный архив песенных текстов, аккордов, табулатур и нот


Fozzy - All That Remains - текст песни, таба, видео

Регистрация Запомнить меня
Войти через:  Facebook Google Twitter Vk Yandex Mail.ru

Fozzy - All That Remains - текст песни, таба, видео

Печатать
Просмотров: 180
    -----------------------------------------
            FOZZY-----ALL THAT REMAINS
    -----------------------------------------
       just tune this standard(EADGBE)
guitar.1
|---------------------------------------------------------------|
|------------15-------------13-------------12-------------14----|
|--12/14-14--14---14\12-12--12---12\11-11--11---11/13-13--13----|
|---------------------------------------------------------------|X4
|---------------------------------------------------------------|
|---------------------------------------------------------------|


|---------------------------------------------------------------|
|---------------------------------------------------------------|
|-10/7--------777--555--444--555----------777--555--444----333--|
|-10/7--------666--444--333--333----------666--444--333----333--|  
|---------------------------------------------------------------|
|---------------------------------------------------------------|
             |------------------|X3         

|-------------------------------------------------------|
|-------------------------------------------------------|
|----777--555--444--555-----------777--555--444----333--|
|----666--444--333--333-----------666--444--333----333--|  
|-------------------------------------------------------|
|-------------------------------------------------------|
    |------------------|X3         

|------------------------------------|
|-----------12----------------14-----|
|-12/11-11--11------11/13-13--13-----|
|------------------------------------|
|------------------------------------|
|------------------------------------|

1st solo---guitar.2
|----11-9----------------------|
|-13------11-------------------|
|------------12-10-10----------|
|------------------------------|
|------------------------------|
|------------------------------|

           b
|---------------------------------------------------------------------|
|--8/10--7-8----8-10-8-10-8-10-8-10----8--8h9p8--6--------------------|
|---------------------------------------------------8-8/7-------------|
|----------------------------------------------------------8----------|
|---------------------------------------------------------------------|
|---------------------------------------------------------------------|


guitar.1
|---------------------------------------------------------------|
|------------15-------------13-------------12-------------14----|
|--12/14-14--14---14\12-12--12---12\11-11--11---11/13-13--13----|
|---------------------------------------------------------------|X6
|---------------------------------------------------------------|
|---------------------------------------------------------------|


|---------------------------------------------------------------|
|---------------------------------------------------------------|
|-10/7--------777--555--444--555----------777--555--444----333--|
|-10/7--------666--444--333--333----------666--444--333----333--|  
|---------------------------------------------------------------|
|---------------------------------------------------------------|
             |------------------|X3         

|-------------------------------------------------------|
|-------------------------------------------------------|
|----777--555--444--555-----------777--555--444----333--|
|----666--444--333--333-----------666--444--333----333--|  
|-------------------------------------------------------|
|-------------------------------------------------------|
    |------------------|X3

   
|---------------------------------|
|---------------------------------|
|---------------------------------|x10
|--5--5-7-8-7----555---5----------|
|--5--5-7-8-7----555---5----------|
|---------------------------------|
pm .             ...
 
dats all for now  

comments email me
lil_punk152@yahoo.com
Добавлено: 10.05.2012
Другие материалы по этой песне:
  • Аккорды и текст

Страница создана 07.04.2012
http://primanota.ru/fozzy/all-that-remains-chords.htm
Привет, Гость.
Предлагаем пройти революционный курс по гитаре.
Подарок от PrimaNota.Ru, забирай!