PrimaNota.ru - самый крупный в мире бесплатный архив песенных текстов, аккордов, табулатур и нот


Foy Vance - At Least My Heart Was Open - аккорды и текст, таба, видео

Регистрация Запомнить меня
Войти через:  Facebook Google Twitter Vk Yandex Mail.ru

Foy Vance - At Least My Heart Was Open - аккорды и текст, таба, видео

Печатать
Просмотров: 83
At Least My Heart Was Open
Foy Vance
Foy Vance - At Least My Heart Was Open 
Tabbed by: Ossi


Standard Tuning

I learned it with this acoustic-version:
https://www.youtube.com/watch?v=Zix-wuzxdWA


Repeat this over the first verse:

Verse 1:
e:|-------------|
b:|-------------|
g:|---0---------|
d:|-----5-------| repeat multiple times
a:|-------------|
e:|-------------|


Verse 2:
e:|----------------------------------------------------------------|
b:|----------------------------------------------------------------|
g:|---0---0---0---0--------0---0---0---0--------0---0---0---0------|
d:|-----5---5---5---5--------5---5---5---5--------5---5---5----5---| 
a:|-7--------------------5-------------------3---------------------|
e:|----------------------------------------------------------------|


Interlude:
e:|------------------------------------------------------------------------|
b:|-----------3-------------------3----------------3------------3------3---|
g:|----0---0----0---0------0---0----0---0----0---0---0---0----0------0-----|
d:|---------------------------------------------------------2------0-------| 
a:|--3---3--------3----3-5---5--------5--5---------------------------------|
e:|----------------------------------------3---3--------3------------------|

[Verse 1]
Well, I tried to do what I felt was right
And I know I fucked it up sometimes
         C                 G
But at least my heart was open

You're the one to cross the line
But you could not go the extra mile
      C                  G
So I did what you were hoping
         C                 G
And at least my heart was open
     C                    G
At least my blood still pumping
F                F     C
I know that it wants sometime burning


[Verse 1]
I have known your love and I have known your hate
[Verse 2]
I watched devastate to the grave
         C               G
Oh, but every moment's golden
[Verse 1]
Though our withered arms entwined was not your faith
[Verse 2]
Why we can't be lovers, friends or even mates

           C                   G
Well, your chances come right for you
        C              G
Because every moment's golden
    C                G
I did what you were hoping
        C                  G
And at least my heart was open
    C                    G
At least my blood still pumping
F               F      C
I know that it wants sometime


[Verse1] a couple of times
[Interlude]
If you get out of this nightmare
Then think to call me to tell me how somebody broke your heart
Don't try, I won't be there
Cause when we ended I found somebody knew that I can start with
She's younger
Her and I, we never really wanna be apart
You're my craft and so am I

[Verse1]
Oh, I was far from 
C  G
you
But I tried to do what I felt was right
And I know I fucked it up sometimes
          C                   G
But at least my heart was open
Добавлено: 26.07.2015
Другие материалы по этой песне:
  • Аккорды и текст

Страница создана 26.07.2015
http://primanota.ru/foy-vance/at-least-my-heart-was-open-chords.htm
Привет, Гость.
Предлагаем пройти революционный курс по гитаре.
Подарок от PrimaNota.Ru, забирай!