PrimaNota.ru - самый крупный в мире бесплатный архив песенных текстов, аккордов, табулатур и нот


Foxing - Den Mother - таба, видео

Регистрация Запомнить меня
Войти через:  Facebook Google Twitter Vk Yandex Mail.ru

Foxing - Den Mother - таба, видео

Печатать
Просмотров: 38
-------------------------------------------------------------------------------
                           Den Mother - Foxing
-------------------------------------------------------------------------------
Tabbed by: Joe H
E-mail: joey2_96@yahoo.com

Tuning: DADAAD

Another Foxing tab :)
Again, it's only Ricky's part tabbed from the Audio Tree video


D|--0---0---0----0---0---0------|
A|--0---0---0----0---0---0------|
A|--5---2---0----5---2---0------|
D|------------------------------|
A|------------------------------|
D|------------------------------|

X4
D|------0-----0-----0-----0-----|
A|----0-----0-----0-----0-------|
A|--5-----2-----0-----0---------|
D|------------------------------|
A|------------------------------|
D|------------------------------|

X4
D|------0--5-4---2-----0--2/4-4h5-4-----|
A|----0--------5-----0------------------|
A|--0--------------0--------------------|
D|--------------------------------------|
A|--------------------------------------|
D|--------------------------------------|

X2
D|--0--0--0--12/5-5/9-9/5-5/7-7--0--0--0--0-2-4-5/9-7-5----------|
A|--0--0--0----------------------0--0--0-------------------------|
A|--5--2--0----------------------5--2--0-------------------------|
D|---------------------------------------------------------------|
A|---------------------------------------------------------------|
D|---------------------------------------------------------------|

X4
D|------4---4-------4---4-------5---5-------5---5----------------|
A|----5---5---5---5---5---5---5---5---5---5---5---5--------------|
A|--0-----------0-----------0-----------0------------------------|
D|---------------------------------------------------------------|
A|---------------------------------------------------------------|
D|---------------------------------------------------------------|

D|--0---0---0---|
A|--0---0---0---|
A|--5---2---0---|
D|--------------|
A|--------------|
D|--------------|


Palm muted X4
D|--5-4---0-4-0---|
A|------5---------|
A|----------------|
D|----------------|
A|----------------|
D|----------------|

X4
D|--12-7----------|
A|-------12-0-9-0-|
A|----------------|
D|----------------|
A|----------------|
D|----------------|

X3
Each set of six notes is played four times
D|---5-4-----------------12--7-----------------------|
A|-------5-4-5-7--(X4)----------12--0--9--0---(X4)---|
A|---------------------------------------------------|
D|---------------------------------------------------|
A|---------------------------------------------------|
D|---------------------------------------------------|

X4: The last six notes are tremolo picked, you have to listen for the timing
D|---5-4-------------------------------7---9---12---------|
A|-------5-4-5-7---(X4)---12---9---5---------------(X4)---|
A|--------------------------------------------------------|
D|--------------------------------------------------------|
A|--------------------------------------------------------|
D|--------------------------------------------------------|

End on:
D|--0-----0---|
A|--0-or--0---|
A|--5-----0---|
D|------------|
A|------------|
D|------------|

************************************

| /   slide up
| \   slide down
| h   hammer-on
| p   pull-off
| ~   vibrato
| +   harmonic
| x   Mute note
| b   Bend
| pb  Pre-bend
| br  Bend release
| pbr Pre-bend release
| brb Bend release bend

************************************
Добавлено: 11.05.2016
Вам также может быть интересно:
Другие материалы по этой песне:

Страница создана 31.07.2015
http://primanota.ru/foxing/den-mother-chords.htm
Привет, Гость.
Предлагаем пройти революционный курс по гитаре.
Подарок от PrimaNota.Ru, забирай!