PrimaNota.ru - самый крупный в мире бесплатный архив песенных текстов, аккордов, табулатур и нот


Foxboro Hot Tubs - 27th Ave Shuffle - таба, видео

Регистрация Запомнить меня
Войти через:  Facebook Google Twitter Vk Yandex Mail.ru

Foxboro Hot Tubs - 27th Ave Shuffle - таба, видео

Печатать
Просмотров: 71
-------------------------------------------------------------------------------
                             27th Ave Shuffle - Foxboro Hot Tubs
-------------------------------------------------------------------------------
Tabbed by: Jade_Simone
Email: cyanide_sun616@hotmail.com

Tuning: Standard

I'm pretty sure this is correct cause I inverted the song to hear the guitar better. 
parts in the solo may be off since its a laid back song.

Intro x4 Verse x8
e|---------------|
B|---------------|
G|---------------|
D|---------------|
A|-5-5-3-55------|
E|-3-3-1-33------|


Chorus
e|-------------------------------------------------------------------------------------|
B|-------------------------------------------------------------------------------------|
G|-------------------------------------------------------------------------------------|
D|-5-5-3-55--5-5-3-55--5-5-3-55--5-5-3-55----------------------------------------------|
A|-3-3-1-33--3-3-1-33--3-3-1-33--3-3-1-33--5-5-3-55--5-5-3-55--5-5-3-55--5-5-3-55------|
E|-----------------------------------------3-3-1-33--3-3-1-33--3-3-1-33--3-3-1-33------|

e|---------------------------------------------------------------------------|
B|---------------------------------------------------------------------------|
G|---------------------------------------------------------------------------|
D|--77777777-5\--------------------------------------------------------------|
A|--55555555-3\--------------------------------------------------------------|
E|---------------------------------------------------------------------------|

Post chorus (played first time through)
e|---------------------------------------------------------------------------|
B|---------------------------------------------------------------------------|
G|--6b-6b-6b-4---------------------------------------------------------------|
D|---------------------------------------------------------------------------|
A|---------------------------------------------------------------------------|
E|---------------------------------------------------------------------------|
(bends are half bends)

Solo
e|---------------------------------------------------------------------------|
B|-----------------------------------------5(?)------------------------------|
G|-6b-6b-6b-6b6-4444-5555---6b6b6b-6b6b-6b---6b-6b6-4------------------------|
D|---------------------------------------------------------------------------|
A|---------------------------------------------------------------------------|
E|---------------------------------------------------------------------------|

e|---------------------------------------------------------------------------|
B|-55-66-88-66-55-5h6-5h6-6-5~-----------------------------------------------|
G|-------------------------------6b6b6b-4-6b6b6b6-4-4444---------------------|
D|-------------------------------------------------------77777777-/\-5\------|
A|-------------------------------------------------------55555555-/\-3\------|
E|---------------------------------------------------------------------------|

e|---------------------------------------------------------------------------|
B|---------------------------------------------------------------------------|
G|--6b--6b--6b--6b-----------------------------------------------------------|
D|---------------------------------------------------------------------------|
A|-----------------5~--(hold-throughout-interlude)---------------------------|
E|-----------------3~--------------------------------------------------------|


End Riff
e|---------------------------------------------------------------------------------------|
B|---------------------------------------------------------------------------------------|
G|--6b-6b-6b-6b6-4--------------------------------------------------6b(hold-and-vibrato)-|
D|-----------------5---------------------------------------------------------------------|
A|---------------------------------------------------------------------------------------|
E|------------------------12\--12\--12\--12\12\-12/-12\--(fades)--12\--------------------|


Things are so much harder now
no matter how i try
Junkyard days and toxic waste
still love is on my mind

I can see the ledge now
Golden Gate is falling from behind
(falling from behind) (?)
well if you call this living,
I just wanna hang my head and cry

Voices in my head
telling me that I am lost
Pills and alcohol
are making me a lost cause

I can see the ledge now
Golden Gate is falling from behind
(falling from behind) (?)
Well if you call this living,
I just wanna hang my head and cry

repeat chorus

| /  slide up
| \  slide down
| h  hammer-on
| p  pull-off
| ~  vibrato
| +  harmonic
| x  Mute note
| b  bend
===============================================================================
Добавлено: 07.12.2013
Другие материалы по этой песне:
  • Аккорды и текст

Страница создана 07.12.2013
http://primanota.ru/foxboro-hot-tubs/27th-ave-shuffle-chords.htm
Привет, Гость.
Предлагаем пройти революционный курс по гитаре.
Подарок от PrimaNota.Ru, забирай!