PrimaNota.ru - самый крупный в мире бесплатный архив песенных текстов, аккордов, табулатур и нот


Four Year Strong - Wipe Yourself Off Man You Dead - таба, видео

Регистрация Запомнить меня
Войти через:  Facebook Google Twitter Vk Yandex Mail.ru

Four Year Strong - Wipe Yourself Off Man You Dead - таба, видео

Печатать
Просмотров: 42
-------------------------------------------------------------------------------
                Wipe Yourself off, Man. You Dead. - Four Year Strong
-------------------------------------------------------------------------------
Tabbed by: chuck717

Tuning: Drop D

Intro
- Clean
e|---------------------------------------------------------------------------|
B|---------------------------------------------------------------------------|
G|----------------------6----7-----------------------------------------------|
D|-----4------7-6---------5----4~--------------------------------------------| x2
A|-------5-------------------------------------------------------------------|
E|-0-0-----0-------0-0-----0-------------------------------------------------|

- Distortion
e|---------------------------------------------------------------------------|
B|---------------------------------------------------------------------------|
G|----------------------6----7-----------------------------------------------|
D|-----4------7-6---------5----4--0-0--0-0--0-0--0---------------------------|
A|------5-------------------------0-0--0-0--0-0--0---------------------------|
E|-0-0-----0-------0-0-----0------0-0--0-0--0-0--0---------------------------|

e|---------------------------------------------------------------------------|
B|---------------------------------------------------------------------------|
G|----------------------6----7-----------------------------------------------|
D|-----4------7-6---------5----4~--------------------------------------------|
A|-------5-------------------------------------------------------------------|
E|-0-0------0-------0-0----0-------------------------------------------------|




************************************

| /   slide up
| \   slide down
| h   hammer-on
| p   pull-off
| ~   vibrato
| +   harmonic
| x   Mute note
| b   Bend
| pb  Pre-bend
| br  Bend release
| pbr Pre-bend release
| brb Bend release bend

************************************
Добавлено: 21.12.2015
Другие материалы по этой песне:
  • Аккорды и текст

Страница создана 21.12.2015
http://primanota.ru/four-year-strong/wipe-yourself-off-man-you-dead-chords.htm
Привет, Гость.
Предлагаем пройти революционный курс по гитаре.
Подарок от PrimaNota.Ru, забирай!