PrimaNota.ru - самый крупный в мире бесплатный архив песенных текстов, аккордов, табулатур и нот


Four Tops - Reach Out - бас-таба, видео

Регистрация Запомнить меня
Войти через:  Facebook Google Twitter Vk Yandex Mail.ru

Four Tops - Reach Out - бас-таба, видео

Печатать
Просмотров: 87
Reach Out I'll Be There.btab
Four Tops
As Played By James Jamerson
Tabledited By Poppamies
Tuning : E A D G 	Time Signature: 4/4

 |       |       |       |        |       |       |       |        
|--------------------------------|--------------------------------|
|1-------1---1---1---1-------1---|1-------1---1---1---1-------3-1-|
|--------------1---------------1-|--------------1-----------------|
|--------------------------------|--------------------------------|

 |       |       |       |        |       |       |       |
|----------------3---3-------3---|----------------3---------------|
|--------------3---------3-------|--------------3-------------0---|
|1-------1-----------------------|1-------1-----------1---4-------|
|--------------------------------|--------------------------------|

 |       |       |       |        |       |       |       |        
|--------------------------------|--------------------------------|
|1-------1---1---1---1-------1---|1-------1---1---1---1-------3-4-|
|--------------1---------------1-|--------------1-----------------|
|--------------------------------|--------------------------------|

 |       |       |       |        |       |       |       |        
|----------------3---3-----------|3---3---3-------3---3-----------|
|--------------3---------3---3---|--------------------------------|
|1-------1-----------------------|------------------------1---0---|
|--------------------------------|--------------------------------|

 |       |       |       |        |       |       |       |        
|--------------------------------|--------------------------------|
|--------------1-----------------|--------------------------------|
|--------------------1---4---4---|--------4-----1-----4---1-------|
|4-------4-------4---------------|----------------4-----------3---|

 |       |       |       |        |       |       |       |        
|--------------------------------|--------------------------------|
|--------------1-----------------|--------------------------------|
|--------------------1---4---4---|--------4-----1-----4---1-------|
|4-------4-------4---------------|----------------4-----------3---|

 |       |       |       |        |       |       |       |        
|--------------------------------|--------------------------------|
|--------------1-----------------|--------------------------------|
|--------------------1---4---4---|--------4-----1-----4---1-------|
|4-------4-------4---------------|----------------4-----------3---|

 |       |       |       |        |       |       |       |        
|--------------------------------|--------------------------------|
|--------------1-----------------|--------------------------------|
|--------------------1---4---4---|--------4-----1-----4---1-------|
|4-------4-------4---------------|----------------4-----------3---|

 |       |       |       |        |       |       |       |        
|--------------------------------|--------------------------------|
|--------------1-----------------|--------------------------------|
|--------------------1---4---4---|--------4-----1-----4-------0---|
|4-------4-------4---------------|----------------4-------4-------|

 |       |       |       |        |       |       |       |        
|--------------------------------|--------------------------------|
|--------------------------------|----------------------------4-3-|
|1---1---1---1---1---1---1-------|--------------------------------|
|----------------------------4-3-|2---2---2---2---2---2---2-------|

 |       |       |       |        |       |       |       |        
|--------------------------------|--------------------------------|
|0---0---0---0---0---0---0---0-1-|3---3---3---3---3---3-------3---|
|--------------------------------|------------------------3-----3-|
|--------------------------------|--------------------------------|

 |       |       |       |        |       |       |       |        
|--------------------------------|----------------3---3-------3---|
|--------------------------------|--------------3---------3-----3-|
|------------------------0---0---|1-------1-----------------------|
|1---1---1---1-0-1---4-----------|--------------------------------|

 |       |       |       |        |       |       |       |        
|----------------3---3-------3---|------------3-------------------|
|--------------3---------3-------|1---1---1-------1---1---1---3---|
|1-------1-----------------------|--------------------------------|
|--------------------------------|--------------------------------|

 |       |       |       |        |       |       |       |        
|----------------3---3-------3---|----------------3---3-------3---|
|--------------3---------3-------|--------------3---------3-----3-|
|1-------1-----------------------|1-------1-----------------------|
|--------------------------------|--------------------------------|

 |       |       |       |        |       |       |       |        
|----------------3---3-------3---|------------3-------------------|
|--------------3---------3-----3-|1---1---1-------1---1---1---3---|
|1-------1-----------------------|--------------------------------|
|--------------------------------|--------------------------------|

 |       |       |       |        |       |       |       |        
|----------------3---3-------2---|3---3---3---3-------------------|
|--------------3---------3-------|--------------3-----------------|
|1-------1-----------------------|----------------1---1---1---0---|
|--------------------------------|--------------------------------|

 |       |       |       |        |       |       |       |        
|--------------------------------|--------------------------------|
|--------------1-----------------|--------------------------------|
|--------------------1---4---4---|--------4---4-1-----4---1-------|
|4-------4-------4---------------|----------------4-----------3---|

 |       |       |       |        |       |       |       |        
|--------------------------------|--------------------------------|
|--------------1-----------------|--------------------------------|
|--------------------1---4---4---|--------4-----1-----4---1-------|
|4-------4-------4---------------|----------------4-----------3---|

 |       |       |       |        |       |       |       |        
|--------------------------------|--------------------------------|
|--------------1-----------------|--------------------------------|
|--------------------1---4---4---|--------4-----1-----4---1-------|
|4-------4-------4---------------|----------------4-----------3---|

 |       |       |       |        |       |       |       |        
|--------------------------------|--------------------------------|
|--------------1-----------------|--------------------------------|
|--------------------1---4---4---|--------4-----1-----4---1-------|
|4-------4-------4---------------|----------------4-----------3---|

 |       |       |       |        |       |       |       |        
|--------------------------------|--------------------------------|
|--------------1-----------------|--------------------------------|
|--------------------1---4---4---|--------4-----1-----4-------0---|
|4-------4-------4---------------|----------------4-------4-------|

 |       |       |       |        |       |       |       |        
|--------------------------------|--------------------------------|
|--------------------------------|4---4---4---4---4---4---4---3---|
|1---1---1---1---1---1---1---4---|--------------------------------|
|--------------------------------|--------------------------------|

 |       |       |       |        |       |       |       |        
|--------------------------------|--------------------------------|
|0---0---0---0---0---0---0---0-2-|3---3---3---3---3---3-------3---|
|--------------------------------|----------------------0-3-----3-|
|--------------------------------|--------------------------------|

 |       |       |       |        |       |       |       |        
|--------------------------------|----------------3---3-------3---|
|--------------------------------|--------------3---------3-------|
|--------------1---------0---3---|1-------1-----------------------|
|1---1---1---1---3---4-----------|--------------------------------|

 |       |       |       |        |       |       |       |        
|----------------3---3-------3---|------------3-------------------|
|--------------3---------3-------|1---1-----------1---1-------3---|
|1-------1-----------------------|--------------------------------|
|--------------------------------|--------------------------------|

 |       |       |       |        |       |       |       |        
|----------------3---3-------3-1-|----------------3---3-------3---|
|--------------3---------3-------|--------------3---------3-------|
|1-------1-----------------------|1-------1-----------------------|
|--------------------------------|------------------------------4-|

 |       |       |       |        |       |       |       |        
|----------------3---3-------3---|------------3-------------------|
|--------------3---------3-------|1---1-----------1---1-------3---|
|1-------1-----------------------|--------------------------------|
|--------------------------------|--------------------------------|

 |       |       |       |        |       |       |       |        
|----------------3---3-------2---|3---3---3-------3---3---3---3---|
|--------------3---------3-------|------------------------------3-|
|1-------1-----------------------|--------------------------------|
|--------------------------------|--------------------------------|

 |       |       |       |        |       |       |       |        
|----------------3---3-------3-1-|----------------3---3-------3-1-|
|--------------3---------3-------|--------------3---------3-------|
|1-------1-----------------------|1-------1-----------------------|
|--------------------------------|--------------------------------|

 |       |       |       |        |       |       |       |        
|------------3-------------------|----------------3---3-------3---|
|1---1-----------1---1-------3---|--------------3---------3-3---3-|
|--------------------------------|1-------1-----------------------|
|--------------------------------|--------------------------------|

 |       |       |       |        |       |       |       |        
|----------------3---3-------3---|----------------3---3-------3---|
|--------------3---------3-----3-|--------------3---------3-------|
|1-------1-----------------------|1-------1-----------------------|
|--------------------------------|--------------------------------|

 |       |       |       |        |       |       |       |        
|------------3-------------------|----------------3---------------|
|1---1---1-------1---1---1---3---|--------------3---3-------------|
|--------------------------------|1-------1-----------1---0-------|
|--------------------------------|----------------------------3---|

 |       |       |       |        |       |       |       |        
|--------------------------------|--------------------------------|
|--------------1-----------------|--------------------------------|
|--------------------1---4---4---|--------4-----1-----4---1-------|
|4-------4-------4---------------|----------------4-----------3---|

 |       |       |       |        |       |       |       |        
|--------------------------------|--------------------------------|
|--------------1-----------------|--------------------------------|
|--------------------1---4---4---|--------4-----1-----4---1-------|
|4-------4-------4---------------|----------------4-----------3---|

 |       |       |       |        |       |       |       |        
|--------------------------------|--------------------------------|
|--------------1-----------------|--------------------------------|
|--------------------1---4---4---|--------4-----1-----4---1-------|
|4-------4-------4---------------|----------------4-----------3---|

 |       |       |       |        |       |       |       |        
|--------------------------------|--------------------------------|
|--------------1-----------------|--------------------------------|
|--------------------1---4---4---|--------4-----1-----4---1---0---|
|4-------4-------4---------------|----------------4---------------|

 |       |       |       |        |       |       |       |        
|--------------------------------|--------------------------------|
|--------------1-----------------|--------------------------------|
|--------------------1---4---4---|--------4-----1-----4-------0---|
|4-------4-------4---------------|----------------4-------4-------|

 |       |       |       |        |       |       |       |        
|--------------------------------|--------------------------------|
|--------------------------------|4---4---4---4---4---4---------3-|
|1---1---1---1---1---1---1---1---|------------------------4---4---|
|------------------------------4-|--------------------------------|

 |       |       |       |        |       |       |       |        
|--------------------------------|--------------------------------|
|0---0---0---0---0---0---0---0-2-|3---3---3---3---3---3-------3---|
|--------------------------------|----------------------0-3-------|
|--------------------------------|--------------------------------|

 |       |       |       |        |       |       |       |        
|--------------------------------|----------------3---3-------3---|
|--------------------------------|--------------3---------3-----3-|
|----------------------------0---|1-------1-----------------------|
|1---1---1---1-4-1---3---4-------|--------------------------------|

 |       |       |       |        |       |       |       |        
|----------------3---3-------3---|------------3-------------------|
|--------------3---------3-------|1---1-----------1---1-------3---|
|1-------1-----------------------|--------------------------------|
|--------------------------------|--------------------------------|

 |       |       |       |        F A D I N G     |       |        
|----------------3---3-------3---|----------------3---3-------3---|
|--------------3---------3-----3-|--------------3---------3-----3-|
|1-------1-----------------------|1-------1-----------------------|
|--------------------------------|--------------------------------|

 |       |       |       |        |       |       |       |        
|----------------3---3-------3---|------------3-------------------|
|--------------3---------3-------|1---1-----------1---1-------3---|
|1-------1-----------------------|--------------------------------|
|--------------------------------|--------------------------------|

 |       |       |       |        
|----------------3---3-------3---|
|--------------3---------3-----3-|
|1-------1-----------------------|
|--------------------------------|


Created with TablEdit http://www.tabledit.com/


=====
Jan Bjorklund, Finland

     
Добавлено: 13.09.2013
Другие материалы по этой песне:
  • Аккорды и текст

Страница создана 30.08.2013
http://primanota.ru/four-tops/reach-out-chords.htm
Привет, Гость.
Предлагаем пройти революционный курс по гитаре.
Подарок от PrimaNota.Ru, забирай!