PrimaNota.ru - самый крупный в мире бесплатный архив песенных текстов, аккордов, табулатур и нот


Four Tops - If I Were A Carpenter - текст песни, бас-таба, видео

Регистрация Запомнить меня
Войти через:  Facebook Google Twitter Vk Yandex Mail.ru

Four Tops - If I Were A Carpenter - текст песни, бас-таба, видео

Печатать
Просмотров: 39
Уроки эстрадного вокала в Санкт-Петербурге
Авторы музыки: Tim Hardin
Авторы текста: Tim Hardin
If I Were A Carpenter
This cover version by The Four Tops reached a UK chart position 7
In 1968. Bass performance James Jamerson. Tab by bass50611.
Brilliant cover of Bobby Darin's original. Not exact as Mr Jamerson's
Bass line but close enough. Comments bass254@btinternet.com 

Intro:
G|--------------------|----5-3-----------------5-3---|
D|-KEYBOARDS & GUITAR-|-5------5---5--3-5---5------5-|
A|----START 14 BARS---|------------------------------|
E|--------------------|------------------------------|

Verse 1:
      If I Were...
G|----------------------------------------------------------|
D|-5--3-5---5-3--3---2--2---5--3-5---5--3-5---3--3---0-2--2-|
A|----------------------------------------------------------|
E|----------------------------------------------------------|

G|-------------5-3---|
D|-5--3-5---5------5-|
A|-------------------|
E|-------------------|

Verse 2:
G|-----------------------------------------------------------------------|
D|-5--3-5---3--3-3---2--2-2---5--5-5---3--5-5---3--3-3---2--2-2---5--5-5-|
A|-----------------------------------------------------------------------|
E|-----------------------------------------------------------------------|

Bridge:
G|-------------------------------------------2----------------------------|
D|-3--5-5---3--3-2---5---3--3--3-3---5--5-5----3---5--5-5---5--3-5---3--3-|
A|------------------------------------------------------------------------|
E|------------------------------------------------------------------------|

G|--------------------------------|
D|-2--2---5--5-5---3---5---5--5-5-|
A|--------------------------------|
E|--------------------------------|

Verse 3 & Solo:
G|------------------------------------------------------------------|
D|-5---5---3--3-3---2--2-2---5--3-5---5--3-5---3--3---2--2---5--3-5-|
A|------------------------------------------------------------------|
E|------------------------------------------------------------------|

G|----5-3----------------------------------------------------------|
D|-5------5---5--3-5---3--3---2--2---5--5-5---3--5-5---3--3---2--2-|
A|-----------------------------------------------------------------|
E|-----------------------------------------------------------------|

G|--------------------------|
D|-5--5-5---3--5-5---3--3-2-|
A|--------------------------|
E|--------------------------|

Verse 4:
G|-------------------------------------------------------------------|
D|-5--3-5---3--3---2--2---5--5-5---5--3-5---3--3-3---2--2-2---5--5-5-|
A|-------------------------------------------------------------------|
E|-------------------------------------------------------------------|

Verse 5:
G|-------------------------------------------------------------------|
D|-5--3-5---3--3---2--2---5--5-5---5--3-5---3--3-3---2--2-2---5--5-5-|
A|-------------------------------------------------------------------|
E|-------------------------------------------------------------------|

G|--------|
D|-5--3-5-|
A|--------|
E|--------|

Interlude:
G|---5-3----------------5-3---|
D|-5-----5---5--3-5---5-----5-|
A|----------------------------|
E|----------------------------|

Verse 6:                                                  (Bass Chord/End)
G|--------------------------------------------------------------12-|
D|-3--3---3-2--2---5--5-5---5--3-5---3--3---2--2-------------------|
A|-------------------------------------------------10--10-10----10-|
E|-----------------------------------------------------------------|

Добавлено: 26.07.2017
Другие материалы по этой песне:
  • Аккорды и текст

Страница создана 19.03.2012
http://primanota.ru/four-tops/if-i-were-a-carpenter-chords.htm
Привет, Гость.
Предлагаем пройти революционный курс по гитаре.
Подарок от PrimaNota.Ru, забирай!