PrimaNota.ru - самый крупный в мире бесплатный архив песенных текстов, аккордов, табулатур и нот


Four Seasons - Who Loves You - аккорды и текст, таба, бас-таба, видео

Регистрация Запомнить меня
Войти через:  Facebook Google Twitter Vk Yandex Mail.ru

Four Seasons - Who Loves You - аккорды и текст, таба, бас-таба, видео

Печатать
Просмотров: 221
Уроки эстрадного вокала в Санкт-Петербурге
Who Loves You
Four Seasons


                            Who Loves You
                       (Bob Gaudio - Judy Parker)

Intro:

	(a capella w/hi-hat; fade in first time):

	  A             F#m
	(Who loves you, ...
	 Bm7        Bm7/E                  A
	 Who's gonna help ...
	               F#m
	 Who loves you ....
	 Bm7          Bm7/E
	 Who's always there to ....

	[repeat above]

	  A            F#m                        Bm7   Bm7/E
	(Who loves you...)  Who ...
	                       A
	Who's gonna ...
	                F#m                       Bm7   Bm7/E
	(Who loves you...)  Who loves ...

	Am
	/ / / /  / / / /
	(ah-ah-ah)

Verse 2:
 
	       Dm                        G             G#   Am
	When tears are in your eyes and ...
	              Dm                  G                Bsus4
	It's hard to make believe ...
	 B                Em                 Em7/D       C#m7-5
	Baby when you're feelin' like you'll never ...
	       Am7/D [N.C.]       (G)
	Come to me, baby you ...

Chorus:

	  G              Em
	(Who loves you, ...
	 Am7        Am7/D                  G
	 Who's gonna help you ....
	                Em
	 Who loves you ...
	 Am7          Am7/D
	 Who's always ..

	  A             F#m                       Bm7
	(Who loves you...)  Who ...
	Bm7/E                 A
	Who's gonna love ...
	                F#m                       Bm7   Bm7/E
	(Who loves you...)  Who ...

	Am
	/ / / /  / / / /
	(ah-ah-ah)

Verse 2:

	And when you think the whole ...

Chorus 2:

	(Who loves you, pretty ...

	(Who loves you...)  Who's gonna love you...
	Who's gonna love you
	(Who loves you...)  Who's gonna love ....
	             Am  G/A  Am [N.C.]
	Who's gonna ...

Instrumental break:

    (bass doubled w/clavinet and synth; organ [w/hi-hat accent] plays Am
     as indicated by / [2X]):

     v   v   v   v     v   v   v   v     v   v   v   v     v   v   v   v
    -----------------|-----------------|-----------------|-----------------
    -----------/---/-|-----------------|---------------/-|-----------------
    -----------------|---3---5---6---6-|-7---------3-----|-------5---6---7-
    -5-5-3-5---------|-----------------|---5-3-5---------|-----------------

    (wordless voices enter [2X]):

     v   v   v   v     v   v   v   v     v   v   v   v     v   v   v   v
    -----------------|-----------------|-----------------|-----------------
    -----------------|-----------------|-----------------|-----------------
    -----------------|-----------------|---------------3-|-----------------
    -5-------------3-|-5-------------5-|---5-------------|-----------------

    (bass w/clavinet and synth [2X]):

     v   v   v   v     v   v   v   v     v   v   v   v     v   v   v   v
    -----------------|-----------------|-----------------|-----------------
    -----------/---/-|-----------------|---------------/-|-----------------
    -----------------|---3---5---6---6-|-7---------3-----|-------5---6---7-
    -5-5-3-5---------|-----------------|---5-3-5---------|-----------------

    Bsus4
      / / / /  / / / /  / / / /  / / / /

    (bass, doubled w/keyboards and strings):

     v   v   v   v     v   v   v   v
    -----------------|-----------------
    -1-----2-----4---|---5-----4---1---
    -----------------|-----------------
    -----------------|-----------------

     Em    Em/D  C#m7-5                 Am7/D              (G)
    (baby   baby   do-do-do-doot ...

[repeat first half of chorus]

Coda [repeat to fade]:

	  A            F#m               Bm7               Bm7/E
	(Who loves you...)  Who's ...
	             A
	Who's gonna ....


-- another ace 70's tab from Andrew Rogers


Добавлено: 19.12.2013
Другие материалы по этой песне:
  • Аккорды и текст

Страница создана 31.03.2012
http://primanota.ru/four-seasons/who-loves-you-chords.htm
Привет, Гость.
Предлагаем пройти революционный курс по гитаре.
Подарок от PrimaNota.Ru, забирай!