PrimaNota.ru - самый крупный в мире бесплатный архив песенных текстов, аккордов, табулатур и нот


Four Seasons - Something On Her Mind - аккорды и текст, таба, видео

Регистрация Запомнить меня
Войти через:  Facebook Google Twitter Vk Yandex Mail.ru

Four Seasons - Something On Her Mind - аккорды и текст, таба, видео

Печатать
Просмотров: 134
Something On Her Mind
Four Seasons


                        Something On Her Mind
                       (Bob Gaudio - Jake Holmes)

Intro:

	(piano miked through Leslie, arr. for guitar):

	Db                        Ab/C
	 v       v       v         v       v       v
	-------------------------|--------------------------
	----9-11-9----------9-11-|-12-11-9-------------9-11-
	-10-----------10-10------|---------8----------------
	-------------------------|--------------------------
	-------------------------|--------------------------
	-------------------------|--------------------------

	Bdim7                    Ab/Eb
	 v       v       v         v       v       v
	---------9h10--9---------|--------------------------
	-12-11-9-----------12----|-9------------------------
	-------------------------|--------------------------
	-------------------------|--------------------------
	-------------------------|--------------------------
	-------------------------|--------------------------
	         ^^^^^^^^^^^^ 1/4-note triplets

	[repeat above]

	Absus4/Eb    Ab/Eb       Ab7 [2: N.C.]
	    /  /  /    /  /  /    /  /  /
	            [2: rit.]

Verse 1:

	Db               Ebm7
	Is she ...
	Ebm7/Ab       Db
	Is a feeling ...
	 Db             Ebm7
	It's so ...
	Ebm7/Ab             Db
	Something's on ...

Verse 2:

	Is she really as ....

Chorus:

	F/C      Eb/F   Bb      G7
	Will she find a ...
	F/C      Eb/F    Bb      Ab
	Does she really ....

[repeat intro]

Verse 3:

	Is she thinking ....

Chorus 2:

	I may be a fool to ...

Verse 4:

	Does she wish ....

Coda:

	Ebm7/Db            Db/Ab
	Something's on ...
	Ebm7/Db            Db/Ab
	Something's on ...

	Ebm7/Db             F    Eb/F  Bb/F
	Something's on ...
	Ebm7                F    Eb/F  Bb/F
	Something's on her ...
	Ebm7                F    Eb/F  Bb/F
	Something's on her ...
	Ebm7               (F)
	Something's on ...

	F    Eb/F    [5X; end cold on last Eb/F]
	/ / /  / / /


-- another ace 60's tab from Andrew Rogers


Добавлено: 14.01.2014
Другие материалы по этой песне:
  • Аккорды и текст

Страница создана 12.03.2012
http://primanota.ru/four-seasons/something-on-her-mind-chords.htm
Привет, Гость.
Предлагаем пройти революционный курс по гитаре.
Подарок от PrimaNota.Ru, забирай!