PrimaNota.ru - самый крупный в мире бесплатный архив песенных текстов, аккордов, табулатур и нот


Four Minute Mile - Sunburnt - таба, видео

Регистрация Запомнить меня
Войти через:  Facebook Google Twitter Vk Yandex Mail.ru

Four Minute Mile - Sunburnt - таба, видео

Печатать
Просмотров: 96
Tabbed By: Sean Wallner
Band: Four Minute Mile
Song: Sunburnt
Album: Bridges/Streetlights
Label: Better Days Records
Tuning: D Standard (DGCFAD)



Intro:       X1
d|------------|
a|------------|
f|-6--6--4--6-|
c|-4--4--4--3-|
g|-6--6--2--4-|
D|------------|
             X1
d|------------|
a|------------|
f|----------6-|
c|----------3-|
g|----------4-|
D|------------|




Pre-Verse:             X1                                    X2
d|----------------------|-------------------------------------|
a|----------------------|-------------------------------------|
f|-6----4----6--3--4--6-|-4-3-------4-3-------6-4-3-----3-4-6-|
c|-4----4----4--3--4--3-|-----6-4-4-----6-4-4-------4-4-------|
g|-6----2----6--1--2--4-|-------------------------------------|
D|----------------------|-------------------------------------|
                       X2
d|----------------------|
a|----------------------|
f|-6----4----6--3--4--6-|
c|-4----4----4--3--4--3-|
g|-6----2----6--1--2--4-|
D|----------------------|




Verse Part 1:                              X2
d|------------------------------------------|
a|------------------------------------------|
f|---6~~~~-6h4-6h4-6h4---4~~~~-3h4p3--------|
c|---4~~~~----4~~~4~~~---4~~~~------4/6\4/6-|
g|-666~~~~~~~~~~~~~~~~-222~~~~--------------|
D|------------------------------------------|
   **                  **                  X2
d|------------------------------------------|
a|------------------------------------------|
f|---6~~~~~~~~~~~~~~~~---4~~~~~~~~~~~~~~~~~-|
c|---4~~~~~~~~~~~~~~~~---4~~~~~~~~~~~~~~~~~-|
g|-666~~~~~~~~~~~~~~~~-222~~~~~~~~~~~~~~~~~-|
D|------------------------------------------|
   **                  ** 



Verse Part 2:                       X2
d|-----------------------------------|
a|-----------------------------------|
f|---6---6---6--6-6---4---4---4--4-4-|
c|---4---4---4--4-4---4---4---4--4-4-|
g|-6666666666666666-2222222222222222-|
D|-----------------------------------|
   ** *** *** ** *  ** *** *** ** * X2
d|-----------------------------------|
a|-----------------------------------|
f|---6---6---6--6-6---4---4---4--4-4-|
c|---4---4---4--4-4---4---4---4--4-4-|
g|-6666666666666666-2222222222222222-|
D|-----------------------------------|
   ** *** *** ** *  ** *** *** ** * 



Pre-Chorus:          X1
d|--------------------|
a|--------------------|
f|--------------------|
c|-6~~~~-6/8/9~999999-|
g|-6~~~~-6/8/9~999999-|
D|-4~~~~-4/6/7~777777-|
                     X1
d|--------------------|
a|--------------------|
f|--------------------|
c|-6~~~~-6/8/9~999999-|
g|-6~~~~-6/8/9~999999-|
D|-4~~~~-4/6/7~777777-|




Chorus:       X2
d|-------------|
a|-------------|
f|------6----4-|
c|-4----3----4-|
g|-4----4----2-|
D|-2-----------|
              X3
d|-------------|
a|-------------|
f|-11---11---4-|
c|-11---11---4-|
g|-9----8----2-|
D|-------------|

                                                                                       X1
d|-2-1-------2-1-------2-1---------1-----2h1--2-1------2-1-------2-1-----------2h4/764~-|
a|-----2/4\2-----2/4\2-----2/4\2-2---222---------2/4\2----2/4\2-----2/4\2-222h4---------|
f|--------------------------------------------------------------------------------------|
c|--------------------------------------------------------------------------------------|
g|--------------------------------------------------------------------------------------|
D|--------------------------------------------------------------------------------------|
              X1
d|-------------|
a|-------------|
f|-11---11---4-|
c|-11---11---4-|
g|-9----8----2-|
D|-------------|




Post-Chorus:      X1
d|-----------------|
a|-----------------|
f|-4~~~~-6~~~~-----|
c|-4~~~~-6~~~~-----|
g|-2~~~~-4~~~~-----|
D|------------\\\\-|
                    X1
d|-2~~~~-4~~~~-6~~~~-|
a|-------------------|
f|-------------------|
c|-------------------|
g|-------------------|
D|-------------------|




2nd Verse:             X1                                              X2
d|----------------------|-----------------------------------------------|
a|----------------------|-6h7p6----6h7p6------6--6h7p6----6h7p6------7--|
f|-6----4----6--3--4--6-|------6/8------6/8--6-6------6/8------6/8--6-6-|
c|-4----4----4--3--4--3-|-------------------8----------------------9----|
g|-6----2----6--1--2--4-|-----------------------------------------------|
D|----------------------|-----------------------------------------------|
                       X1                   ****                   ****                   X2
d|----------------------|------------------------------------------------------------------|
a|----------------------|------------------------------------------------------------------|
f|-6----4----6--3--4--6-|-66-666-666-666-644-444-444-444-466-666-633-333-344-444-466666666-|
c|-4----4----4--3--4--3-|-44-444-444-444-444-444-444-444-444-444-433-333-344-444-433333333-|
g|-6----2----6--1--2--4-|-66-666-666-666-622-222-222-222-266-666-611-111-122-222-244444444-|
D|----------------------|------------------------------------------------------------------|




Pre-Chorus 2:                 X1
d|-222~~22222222-2222222222222-|
a|-222~~22222222-2222222222222-|
f|-444~~44444444-4444444444444-|
c|-444~~44444444-4444444444444-|
g|-222~~22222222-2222222222222-|
D|-----------------------------|
   **             ** ** ** ** X1
d|-----------------------------|
a|-----------------------------|
f|-444~~~~~~~~~~-4444444444444-|
c|-444~~~~~~~~~~-4444444444444-|
g|-222~~~~~~~~~~-2222222222222-|
D|-----------------------------|
   **             ** ** ** **



Chorus:       X2
d|-------------|
a|-------------|
f|------6----4-|
c|-4----3----4-|
g|-4----4----2-|
D|-2-----------|
              X3
d|-------------|
a|-------------|
f|-11---11---4-|
c|-11---11---4-|
g|-9----8----2-|
D|-------------|

                                                                                        X1
d|-2-1-------2-1-------2-1---------1-----2h1--2-1-------2-1-------2-1-----------2h4/764~-|
a|-----2/4\2-----2/4\2-----2/4\2-2---222---------2/4\2-----2/4\2-----2/4\2-222h4---------|
f|---------------------------------------------------------------------------------------|
c|---------------------------------------------------------------------------------------|
g|---------------------------------------------------------------------------------------|
D|---------------------------------------------------------------------------------------|
              X1
d|-------------|
a|-------------|
f|-11---11---4-|
c|-11---11---4-|
g|-9----8----2-|
D|-------------|




Post-Chorus:     X1
d|----------------|
a|----------------|
f|-3~~6~~7~~6~~~~-|
c|-4~~3~~4~~4~~~~-|
g|-2~~4~~5~~6~~~~-|
D|----------------|
                 X1
d|-2~/4~\1~/6~~~~-|
a|----------------|
f|----------------|
c|----------------|
g|----------------|
D|----------------|




Bridge:                                               X1
d|-----------------------------------------------------|
a|-----------------------------------------------------|
f|-6~~~~~~~~--------6~~~~------3~~~~---3~~~~~~~~~3~~~3-|
c|----4~~~~~-----4~~~~~~~---4~~~~~~~------4~~~~4~~~4~4-|
g|-------2~~4/6~~~~~~~~~~4~~~~~~~~~~1~~~~~~~~2~~~~~~~2-|
D|-----------------------------------------------------|
                                                      X1
d|-----------------------------------------------------|
a|-----------------------------------------------------|
f|---------------------------------------------------3-|
c|---------------------------------------------------4-|
g|---------------------------------------------------2-|
D|-----------------------------------------------------|




Outro:                                                                        X1
d|-----------------------------------------------------------------------------|
a|-----------------------------------------------------------------------------|
f|---6~~~~~~~~3h4p3-------3~~~~~----------6~~~~~~~~3h4p3-------3~~~~~~~~3~~~~~-|
c|------4~~~~~-----4/6-------4~~4/66/8-------4~~~~~-----4/6-------4~~~~~~~~4~~-|
g|-6~~~~~~~6~~---------2~~~~~~~~--------6~~~~~~~6~~---------1~~~~~~~~2~~~~~~~~-|
D|-----------------------------------------------------------------------------|
                                                                            X1
d|---------------------------------------------------------------------------|
a|---------------------------------------------------------------------------|
f|-88888888-11111-6666-4444444444444444-88888888-11111-6666-3333333344444444-|
c|-88888888-11111-6666-4444444444444444-88888888-11111-6666-3333333344444444-|
g|-66666666-9999--4444-2222222222222222-66666666-9999--4444-1111111122222222-|
D|---------------------------------------------------------------------------|

                                                                              X1
d|-----------------------------------------------------------------------------|
a|-----------------------------------------------------------------------------|
f|---6~~~~~~~~3h4p3-------3~~~~~----------6~~~~~~~~3h4p3----3~~~~~~~~~~~~~~~~~-|
c|------4~~~~~-----4/6-------4~~4/66/8-------4~~~~~-----4/6-4~~~~~~~~~~~~~~~~~-|
g|-6~~~~~~~6~~---------2~~~~~~~~--------6~~~~~~~6~~---------2~~~~~~~~~~~~~~~~~-|
D|-----------------------------------------------------------------------------|
                                                                            X1
d|---------------------------------------------------------------------------|
a|---------------------------------------------------------------------------|
f|-88888888-11111-6666-4444444444444444-88888888-11111-6666-4~~~~~~~~~~~~~~~-|
c|-88888888-11111-6666-4444444444444444-88888888-11111-6666-4~~~~~~~~~~~~~~~-|
g|-66666666-9999--4444-2222222222222222-66666666-9999--4444-2~~~~~~~~~~~~~~~-|
D|---------------------------------------------------------------------------|



Thought I had you last year
I was tied to a string
Let me slip through your fingers
Fall back to you this spring
I've seen you wasted, 
and wasting your days
Always looking from the outside, 
I'm cut from the frame

So close when I stayed, 
but you're still far from me
and all the choices you've made, 
made me hang on for too long

It's taking me everything 
to disreguard the faults he puts you through
Excuse me while I can't hold my tongue anymore
I know you better than this, 
and I know you're better than him
(Better than him)

Thought I had you one time, 
now I'm not so sure
I'm over all the time I've spent on this chase
Have we lost our place?
After those days, 
turned the page on me, 
will you walk away from me

It's taking me everything 
to disreguard the faults he puts you through
Excuse me while I can't hold my tongue anymore
I know you better than this, 
and I hope you remember this

You're still so fucking naive
(You're still so fucking naive)
You're still so fucking naive

You're still so fucking naive
(You're still so fucking naive)
You're still so fucking naive








d|----------|
a|----------|
f|- SEAN'S -|
c|- GUITAR -|
g|----------|
D|----------|
 |
d|--------------|
a|--------------|
f|---- 2nd  ----|
c|--- GUITAR ---|
g|--------------|
D|--------------|

TAB KEY
____________________
~ = Let Note Ring   |
                    |
' = Tremelo Picking |
                    |
\ = Slide Down Neck |
                    |
/ = Slide Up Neck   |
                    |
h = Hammer On       |
                    |
p = Pull Off        |
                    |
b = Bend String     |
                    |
x = chugs           |
                    |
* = Palm Mute       |
                    |
{ = Pick Scrape     |
____________________|

https://www.facebook.com/fourminutemilewa

http://betterdaysrecords.limitedrun.com/bands/four-minute-mile

http://fourminutemile.bandcamp.com
Добавлено: 15.11.2013
Другие материалы по этой песне:
  • Аккорды и текст

Страница создана 15.11.2013
http://primanota.ru/four-minute-mile/sunburnt-chords.htm
Привет, Гость.
Предлагаем пройти революционный курс по гитаре.
Подарок от PrimaNota.Ru, забирай!