PrimaNota.ru - самый крупный в мире бесплатный архив песенных текстов, аккордов, табулатур и нот


Four Letter Lie - Stay For A Lifetime - таба, видео

Регистрация Запомнить меня
Войти через:  Facebook Google Twitter Vk Yandex Mail.ru

Four Letter Lie - Stay For A Lifetime - таба, видео

Печатать
Просмотров: 93
if anyone finds anything wrong or off with this tab, email me at ebaydriver41@hotmail.com

www.fourletterlie.com
www.myspace.com/fourletterlie

eb|-----------0---0-----0---0-0-0-0--|
Bb|-----------0---0-----0---0-0-0-0--|
Gb|--6-----9--9---6-----9---9-9-9-9--|
Db|--7-----9--9---7-----9---9-9-9-9--|
Ab|--5-----7--7---5-----7---7-7-7-7--|
Eb|----------------------------------|

   She whispered the words…
Eb|--0-----0-----0-----0-----------------------------|
Bb|--0-----0-----0-----0-----------(0)---------------|
Gb|--6-----9----(9)----9------------9----------------|
Db|--7-----9-----9-----9--------6-6---6-6-6/7--------|
Ab|--5-----7-----7-----7--(x2)-----------------------| (x2)
Eb|--------------7-----------------------------------|

   She found love…
Eb|--0-----0----(0)---(0)--|
Bb|--0-----0-----1-----1---|
Gb|--6-----7-----0-----0---|
Db|--7-----7-----0-----0---|
Ab|--5-----5-----3-----2---| (x2)
Eb|--------------3-----2---|

Eb|--0-----0-----0-----0---0-0-0-0-0--|
Bb|--0-----0-----0-----0---0-0-0-0-0--|
Gb|--6-----9-----6-----9---9-9-9-9-9--|
Db|--7-----9-----7-----9---9-9-9-9-9--|
Ab|--5-----7-----5-----7---7-7-7-7-7--|
Eb|-----------------------------------|

   After all those words…
Eb|--0-----0-----0-----0--|
Bb|--0-----0-----0-----0--|
Gb|--6-----9----(9)----9--|
Db|--7-----9-----9-----9--|
Ab|--5-----7-----7-----7--|
Eb|--------------7--------|

   She found love…
Eb|--0-----0----(0)---(0)--|
Bb|--0-----0----(1)----0---|
Gb|--6-----7-----0-----0---|
Db|--7-----7-----0-----0---|
Ab|--5-----5-----3-----2---| (x2)
Eb|--------------3-----2---|

   [1st guitar]
Eb|------------------------------------------------------|
Bb|------------------------------------------------------|
Gb|------------------------------------------------------|
Db|------------------------------------------------------|
Ab|------------------------------------------------------|
Eb|--5555555555555555-7777777777777777-3333333333333333--|

   [2nd guitar]
Eb|-----10-----------10-------------------------|
Bb|--10----10-----10----10--(x2)---3-2----------|
Gb|------------------------------------2--(x10)-|
Db|---------------------------------------------|
Ab|---------------------------------------------|
Eb|---------------------------------------------|

Eb|-------------------|
Bb|--555-333-222------|
Gb|--------------222--|
Db|-------------------|
Ab|-------------------|
Eb|-------------------|

   [1st guitar]
Eb|--0----0-----0-0-0-0-0---0-0-0-0-0---------|
Bb|--0----0-----0-0-0-0-0---0-0-0-0-0---------|
Gb|--6----7-----7-7-7-7-7---7-7-7-7-7---------|
Db|--7----7-----7-7-7-7-7---7-7-7-7-7---------|
Ab|--5----5-----5-5-5-5-5---5-5-5-5-5---------|
Eb|-------------------------------------------|

Eb|--0-----0-----0-0-0-0-0-0----0-0-0-0-0-0--|
Bb|--0-----0-----0-0-0-0-0-0----0-0-0-0-0-0--|
Gb|--6-----9-----6-6-6-6-6-6----9-9-9-9-9-9--|
Db|--7-----9-----7-7-7-7-7-7----9-9-9-9-9-9--|
Ab|--5-----7-----5-5-5-5-5-5----7-7-7-7-7-7--|
Eb|------------------------------------------|

   [1st guitar]
Eb|--0-----0----(0)---(0)--|
Bb|--0-----0----(1)----0---|
Gb|--6-----7-----0-----0---|
Db|--7-----7-----0-----0---|
Ab|--5-----5-----3-----2---|
Eb|--------------3-----2---|

  (chorus)
Eb|--0-----0----(0)---(0)--|
Bb|--0-----0----(1)----0---|
Gb|--6-----7-----0-----0---|
Db|--7-----7-----0-----0---|
Ab|--5-----5-----3-----2---| (x2)
Eb|--------------3-----2---|

   [2nd guitar]
Eb|---------------------|
Bb|-------9------9------|
Gb|--9h11---9h11--------|
Db|---------------------|
Ab|---------------------|
Eb|---------------------|
Добавлено: 02.07.2012
Другие материалы по этой песне:
  • Аккорды и текст

Страница создана 02.07.2012
http://primanota.ru/four-letter-lie/stay-for-a-lifetime-chords.htm
Привет, Гость.
Предлагаем пройти революционный курс по гитаре.
Подарок от PrimaNota.Ru, забирай!