PrimaNota.ru - самый крупный в мире бесплатный архив песенных текстов, аккордов, табулатур и нот


Four Letter Lie - Rocky Loves Emily - таба, видео

Регистрация Запомнить меня
Войти через:  Facebook Google Twitter Vk Yandex Mail.ru

Four Letter Lie - Rocky Loves Emily - таба, видео

Печатать
Просмотров: 135
Hey everyone, this is the song Rocky Loves Emily by Four Letter Lie

I saw FLL when they came to Omaha in November, great show so check them out live!

I wrote this tab down pretty fast so there may be errors or parts may be incorrect, but 
think for the most part it is good.

If you spot anything, email me at mikaelnelson (at) gmail (dot) com and I'll try and fix it!


Intro [0:00 - 0:12]

Guitar 1
e -----------------------------------------------|
B --------6---4--------6---4-------6---4---------|
G -----6------------6------------6---------------|
D -----------------------------------------------| Repeat
A -----------------------------------------------|
D -----------------------------------------------|

e ----------------------|
B ----------------------|
G -----6----------------|
D --------  Hold @ 0:12-|
A ----------------------|
D ----------------------|

Guitar 2
e  ----------------------------------------------------------------------------------|
B -----------------------------------------------------------------------------------|
G -----------------------------------------------------------------------------------|
D ----------------------------------4-4-x---4---4-4-x----4--4-4-x----4---6-6-6-6-6---|
A ----------------------------------4-4-x---4---4-4-x----4--4-4-x----4---6-6-6-6-6---|
D ----------------------------------4-4-x---4---4-4-x----4--4-4-x----4---6-6-6-6-6---|

e ------------------------------------------------------------------------------------|
B ------------------------------------------------------------------------------------|
G ------------------------------------------------------------------------------------|
D ----------------------------------4-4-x---4---4-4-x----4--4-4-x----4---8-8-8-8-6-6--|
A ----------------------------------4-4-x---4---4-4-x----4--4-4-x----4---8-8-8-8-6-6--|
D ----------------------------------4-4-x---4---4-4-x----4--4-4-x----4---8-8-8-8-6-6--|


Verse [0:12 - 0:40]

Guitar 1
e -------------------------------|
B -----7p6-----------------------|
G ------------8p6---8h10---------|
D -------------------------------|  The background fill
A -------------------------------|
D -------------------------------|

or

e -------------------------------|
B -----7p6------------4h6--------|
G ------------8p6----------------|
D -------------------------------|  The background fill
A -------------------------------|
D -------------------------------|

Guitar 2
e ------------------------------------------------------------|
B ------------------------------------------------------------|
G ------------------------------------------------------------|
D -----------4-4-x---4---4-4-x----4--4-4-x----4---6-6-6-6-6---| Repeat (Muted)
A -----------4-4-x---4---4-4-x----4--4-4-x----4---6-6-6-6-6---|
D -----------4-4-x---4---4-4-x----4--4-4-x----4---6-6-6-6-6---|


Chorus [0:40 - 0:59]
e ------------------------------|
B ------------------------------|
G ------6-----------------------|
D ------6--4--8--7--6-----------|
A ------4--4--8--7--6-----------|
D ---------4--8--7--6-----------|


During 2nd Chorus there is some Acoustic guitar going on, sounds like

e------------|
B--------4---|
G----6-------|
D------------| And Repeat
A------------|
D------------|

And later something like...
e--------9----|
B----6--------|
G-------------|
D-------------| And Repeat
A-------------|
D-------------|

Repeat Above

Solo

e ----------------------------------------|
B ----9-------10----10h11p10--------------|
G --------11-------------------------11---|
D ----------------------------------------| Repeat
A ----------------------------------------|
D ----------------------------------------|

Not showing every strum but you can figure it out
e--------------------|
B--------------------|
G--------------------|
D---11/13----11--11--| And Repeat
A---11/13----11--11--|
D---11/13----11--11--|
Добавлено: 29.06.2012
Другие материалы по этой песне:
  • Аккорды и текст

Страница создана 29.06.2012
http://primanota.ru/four-letter-lie/rocky-loves-emily-chords.htm
Привет, Гость.
Предлагаем пройти революционный курс по гитаре.
Подарок от PrimaNota.Ru, забирай!