PrimaNota.ru - самый крупный в мире бесплатный архив песенных текстов, аккордов, табулатур и нот


Four Letter Lie - My Surrender - таба, видео

Регистрация Запомнить меня
Войти через:  Facebook Google Twitter Vk Yandex Mail.ru

Four Letter Lie - My Surrender - таба, видео

Печатать
Просмотров: 103
Db
Ab
Db
Gb
Bb
Eb



Intro: (Guitar 1) Can Bend the 9's if want.
|-------------------------------------------------------------------------------|
|-------------------------------------------------------------------------------|
|-------------------------------------------------------------------------------|
|-------------------------------------------------------------------------------|
|------10p9----10p9--------10p9----10p9--------10p9----10p9--------10p9----10p9-|
|-0-00------00------000-00------00------000-00------00------000-00------00------|

Intro: Both Guitars
|--------------------------------------------------------------------------------|
|--------------------------------------------------------------------------------|
|------12/11---12/11-------12/11---12/11-------12/11---12/11-------12/11---12/11-|
|-0-00-x-/x-00-x-/x-000-00-x-/x-00-x-/x-000-00-x-/x-00-x-/x-000-00-x-/x-00-x-/x--|
|-0-00-10/9-00-10p9-000-00-10/9-00-10/9-000-00-10/9-00-10/9-000-00-10/9-00-10/9--|
|-0-00------00------000-00------00------000-00------00------000-00------00-------|




Verse: Both Guitars
|-------------------------------------------------------------------|
|-------------------------------------------------------------------|
|----------------------------------171717-161616-171717-1616-17-19--|
|-5p4-000000-5p4-000000-5p4-000000-x-x-x--x-x-x--x-x-x--x-x--x--x---|
|-5p4-000000-5p4-000000-5p4-000000-151515-141414-151515-1414-15-17b-|
|-5p4-000000-5p4-000000-5p4-000000----------------------------------|x2




Chorus: Rhythm
|-------------------|
|-------------------|
|-------------------|
|-00000000-55555555-|
|-00000000-55555555-|
|-00000000-55555555-|x4

Chorus: Lead
|------------------------------------|
|------------------------------------|
|-1111111111111111/121212121212/1414-|
|-x-x-x-x-x-x-x-x-/x-x-x-x-x-x-/x-x--|
|-9-9-9-9-9-9-9-9-/101010101010/1212-|
|------------------------------------|x4




Pre-Verse:
|------------------|-------------------------------------------------------------------------------|
|----Lead-Only-----|-------------------------------------------------------------------------------|
|------------------|------12/11---12/11-------12/11---12/11-------12/11---12/11-------12/11---12/11|
|------------------|-0-00-x-/x-00-x-/x-000-00-x-/x-00-x-/x-000-00-x-/x-00-x-/x-000-00-x-/x-00-x-/x-|
|-----10p9----10p9-|-0-00-10/9-00-10p9-000-00-10/9-00-10/9-000-00-10/9-00-10/9-000-00-10/9-00-10/9-|
|0-00------00------|-0-00------00------000-00------00------000-00------00------000-00------00------|




Verse: Both Guitars
|-------------------------------------------------------------------|
|-------------------------------------------------------------------|
|----------------------------------171717-161616-171717-1616-17-19--|
|-5p4-000000-5p4-000000-5p4-000000-x-x-x--x-x-x--x-x-x--x-x--x--x---|
|-5p4-000000-5p4-000000-5p4-000000-151515-141414-151515-1414-15-17b-|
|-5p4-000000-5p4-000000-5p4-000000----------------------------------|x2 (On second 
time play high section twice)




Chorus: Rhythm
|-------------------|
|-------------------|
|-------------------|
|-00000000-55555555-|
|-00000000-55555555-|
|-00000000-55555555-|x4

Chorus: Lead
|------------------------------------|
|------------------------------------|
|-1111111111111111/121212121212/1414-|
|-x-x-x-x-x-x-x-x-/x-x-x-x-x-x-/x-x--|
|-9-9-9-9-9-9-9-9-/101010101010/1212-|
|------------------------------------|x4



Solo Break: Sorry, can't quite work this out properly.
            Play around with these notes though to get something going
|-------------------12-15-|
|-------------12-15-------|
|-------12-14-------------|
|-12-14-------------------|
|-------------------------|
|-------------------------|




Phone Call Section:
|-------------------|----------------------------------|
|-------------------|----------------------------------|
|-------------------|-171717-161616-171717-1616-17-19--|
|-12121212-10101010-|-x-x-x--x-x-x--x-x-x--x-x--x--x---|
|-12121212-10101010-|-151515-141414-151515-1414-15-17b-|
|-12121212-10101010-|----------------------------------|




Chorus: Rhythm
|-------------------|
|-------------------|
|-------------------|
|-00000000-55555555-|
|-00000000-55555555-|
|-00000000-55555555-|x4

Chorus: Lead
|------------------------------------|
|------------------------------------|
|-1111111111111111/121212121212/1414-|
|-x-x-x-x-x-x-x-x-/x-x-x-x-x-x-/x-x--|
|-9-9-9-9-9-9-9-9-/101010101010/1212-|
|------------------------------------|x4




Outro: Both Guitars
|--------------------------------------------------------------------------------|
|--------------------------------------------------------------------------------|
|------12/11---12/11-------12/11---12/11-------12/11---12/11-------12/11---12/11-|
|-0-00-x-/x-00-x-/x-000-00-x-/x-00-x-/x-000-00-x-/x-00-x-/x-000-00-x-/x-00-x-/x--|
|-0-00-10/9-00-10p9-000-00-10/9-00-10/9-000-00-10/9-00-10/9-000-00-10/9-00-10/9--|
|-0-00------00------000-00------00------000-00------00------000-00------00-------|
Добавлено: 19.03.2012
Другие материалы по этой песне:
  • Аккорды и текст

Страница создана 19.03.2012
http://primanota.ru/four-letter-lie/my-surrender-chords.htm
Привет, Гость.
Предлагаем пройти революционный курс по гитаре.
Подарок от PrimaNota.Ru, забирай!