PrimaNota.ru - самый крупный в мире бесплатный архив песенных текстов, аккордов, табулатур и нот


Fotos - Nach Dem Goldrausch - таба, видео

Регистрация Запомнить меня
Войти через:  Facebook Google Twitter Vk Yandex Mail.ru

Fotos - Nach Dem Goldrausch - таба, видео

Печатать
Просмотров: 166
Уроки эстрадного вокала в Санкт-Петербурге
Авторы музыки: Tom Heßler
Авторы текста: Tom Heßler
Intro/Verse: listen to the song to get the ryhthm,its really easy!
play this a few times               Distortion for the Intro/Clean in Verse
e|-------------------------------------------------------------------------|
B|-------------------------------------------------------------------------|
G|-7---7---9-9-9-11--11-11-11-9-9-9----------------------------------------|
D|-7---7---9-9-9-11--11-11-11-9-9-9----------------------------------------|
A|-5---5---7-7-7-9---9--9--9--7-7-7----------------------------------------|
E|-------------------------------------------------------------------------|

Chorus: put Distortion on!
e|---------------------------------------------------------------------------|
B|---------------------------------------------------------------------------|
G|-7---7---9-9-9-7---7---9-9-9-11---11-11-11-9-9-9-11---11-11-11-9-9-9-------|
D|-7---7---9-9-9-7---7---9-9-9-11---11-11-11-9-9-9-11---11-11-11-9-9-9-------|
A|-5---5---7-7-7-5---5---7-7-7-9----9--9--9--7-7-7-9----9--9--9--7-7-7-------|
E|---------------------------------------------------------------------------|

second Guitar in Chorus and some interludes:
e|-------------------12-12-12----------------------------14-14-14----------|
B|-14-14-14-14-14-14----------12-12-12-10-10-10-10-10-10----------12-12-12-|
G|-------------------------------------------------------------------------|
D|-------------------------------------------------------------------------|
A|-------------------------------------------------------------------------|
E|-------------------------------------------------------------------------|

I think that's enough,that you can play this song;)
Enjoy it
Добавлено: 13.07.2012
Другие материалы по этой песне:
  • Аккорды и текст

Страница создана 13.07.2012
http://primanota.ru/fotos/nach-dem-goldrausch-chords.htm
Привет, Гость.
Предлагаем пройти революционный курс по гитаре.
Подарок от PrimaNota.Ru, забирай!