PrimaNota.ru - самый крупный в мире бесплатный архив песенных текстов, аккордов, табулатур и нот


Fotheringay - Winterwinds - таба, видео

Регистрация Запомнить меня
Войти через:  Facebook Google Twitter Vk Yandex Mail.ru

Fotheringay - Winterwinds - таба, видео

Печатать
Просмотров: 93
Уроки эстрадного вокала в Санкт-Петербурге
Авторы: Sandy Denny

Fotheringay - Winter Winds 
written by sandy denny
tabbed by Donal o'Donoghue (IRL)

std. tuning


[INTRO]
|-----------------------------------------|
|-----------------------------------------|
|-----------------------------------------|
|-2--3--2--0------------------------------|
|-------------3--2--0--2--3--2--0---------|
|-----------------------------------------|

[VERSE]
Winter winds they do blow cold,
  Am              G
|-----------------------------------------|
|-----0--1---1----------------------------|
|---2-----2----------0---------0----------|
|--2-------2-------0-----0---0------------|
|-0--------------------2------------------|
|--------------------------3--------------|


The time of year, it is chosen.
  Em                  Am
|-----------------------------------------|
|---------------------------0--0h1p0------|
|--------------------------2---------2----|
|---2--3--2--0------------2---------------|
|---------------3--2--0-------------------|
|-0---------------------------------------|


Now the frost and fire,
  Am              G
|-----------------------------------------|
|-----0--1---1----------------------------|
|---2-----2----------0---------0----------|
|--2-------2-------0-----0---0------------|
|-0--------------------2------------------|
|--------------------------3--------------|



And now the sea is frozen.
 Em                  Am
|-----------------------------------------|
|---------------------------0--1----------|
|--------------------------2--------------|
|---2--3--2--0------------2---------------|
|---------------3--2--0-------------------|
|-0---------------------------------------|

[BRIDGE BETWEEN VERSES]

                           -------------------|
gtr. I                                        |
  Am              G                           |
|-----------------------------------------|   |
|-----0--1---1----------------------------|   |
|---2-----2----------0---------0----------|   |
|--2-------2-------0-----0---0------------|   |
|-0--------------------2------------------|   |
|--------------------------3--------------|   |
                                              |
gtr. II                                       |
|-----------------------------------------|   |
|-----------------------------------------|   |
|-5~-4~-2~---5--4--2----0--0--------------|   |
|--------------------3--------------------|   |
|-------0------------------2--------------|   |
|-----------------------------------------|   |
                                              |
                         ---------------------|



                         -----------------------|
gtr. I                                          |
 Em                  Am                         |
|--------------------------------------------|  |
|---------------------------0--1-------------|  |
|--------------------------2-----------------|  |
|---2--3--2--0------------2------------------|  |
|---------------3--2--0----------------------|  |
|-0------------------------------------------|  | 
                                                |
gtr. II                                         |
|--5--4--4s7--5--4--4--5--5s7--8--7--5--7--8-|  |
|--------------------------------------------|  |
|--5--4--4s7--5--4--4--5--5s7--9--7--5--7--9-|  |
|--------------------------------------------|  |
|--3--2--2s5--3--2--2--3--3s5--7--5--3--5--7-|  |
|--------------------------------------------|  |
                                                |
                        ------------------------|


[verse2 lyrics]
He who sleeps he does not see
The coming of the seasons,
The filling of a dream
Without a time to reason.

[verse3 lyrics]
He who sleeps he does not see
The coming of the seasons,
The filling of a dream
Without a time to reason.

form intro/verse/bridge/verse/bridge/verse/bridge
Добавлено: 04.12.2013
Вам также может быть интересно:
Другие материалы по этой песне:
  • Аккорды и текст

Страница создана 04.12.2013
http://primanota.ru/fotheringay/winterwinds-chords.htm
Привет, Гость.
Предлагаем пройти революционный курс по гитаре.
Подарок от PrimaNota.Ru, забирай!