PrimaNota.ru - самый крупный в мире бесплатный архив песенных текстов, аккордов, табулатур и нот


Fotheringay - The Way I Feel - таба, видео

Регистрация Запомнить меня
Войти через:  Facebook Google Twitter Vk Yandex Mail.ru

Fotheringay - The Way I Feel - таба, видео

Печатать
Просмотров: 115
Авторы музыки: Gordon Lightfoot
Авторы текста: Gordon Lightfoot
1st Verse:                                             
                 e------5---3----1----1^0------------||
                 B----3----3----3----3---------------||
                 G-----------------------------------||
                 D--0-----0--- 0----0----------------||
                 A-----------------------------------||
                 E-----------------------------------|| x4
          "The way I feel...................."

                 e------5---3-----1-----1^0---------||
                 B----3----3-----3-----3------------||
                 G----------------------------------||
                 D----------------------------------||
                 A--3-----3-----3---- 3-------------||
                 E----------------------------------|| x2
  "Who's birds have flown....."

                 e------5---3----1----1^0------------||
                 B----3----3----3----3---------------||
                 G-----------------------------------||
                 D--0-----0--- 0----0----------------||
                 A-----------------------------------||
                 E-----------------------------------||x6


                 e------5---3-----1-----1^0---------||
                 B----3----3-----3-----3------------||
                 G----------------------------------||
                 D----------------------------------||
                 A--3-----3-----3---- 3-------------||
                 E----------------------------------||x2

                 e----------0------0----------0------0-||
                 B----1-3------3-------1--3------3-----||
                 G-------------------------------------||
                 D-------------------------------------||
                 A--3----------------3-----------------||
                 E-------------------------------------|| x2

                 e------1^0--0^1---1---------1^0--0^1--||
                 B----3--------------------3-----------||
                 G-------------------------------------||
                 D--0--------------------0-------------||
                 A-------------------------------------||
                 E-------------------------------------||x2

(Repeat from first verse)

3rd Verse riff:
                 e-------------------------------------||
                 B-------------------------------------||
                 G----2--2^0---------------------------||
                 D--0--------3---3^2^0-----------------||
                 A---------------------3---3^2^0-------||
                 E-------------------------------1-----||x4


                 e-------------------------------------||
                 B-------3-----------------------------||
                 G----0------0-------------------------||
                 D-----------------2-2^0---------------||
                 A--3-----------3--------3-------------||
                 E-------------------------------------||x1

                 e-------------------------------------||
                 B-------------------------------------||
                 G----2--2^0---------------------------||
                 D-----------3---3^2^0-----------------||
                 A--3------------------3---3^2^0-------||
                 E-------------------------------1-----||x1

repeat 3rd verse riffs until solo

Solo:
    
 e--------------------------|-------------------|---------------------||
 B--------------------------|-------------------|---------6--6-5---5--||
 G--2--2--------------------|----------------5-7|-7--5-7---------7----||
 D--------3--3-3-3^2^0------|-------------5^7---|---------------------||
 A--------------------3^2^0-|/-5--3^5--5-5------|---------------------||
 E--------------------------|-------------------|---------------------||
          

 e--------------------------|----------------------------------------||
 B--------------------------|-----------------------------------4-5-6||
 G-7-------5----------------|-------7-7--5----5--5--7b-7b-7--5-------||
 D---5-6-7----7-6-5-0-3-4-5-|-3-4-5---------7------------------7-----||
 A--------------------------|----------------------------------------||
 E--------------------------|----------------------------------------||


 e-------------------------------|------------------------------------||
 B-5-----------------------------|------------------------------------||
 G---5---------------------------|-------------------------2-3-5--3-5-||
 D-----7--5--5^7^5----5----------|--------3-3-3--5-5--3-5-------------||
 A------------------8----8--5--3-|--5-5-5-----------------------------||
 E-------------------------------|------------------------------------||

Добавлено: 19.04.2012
Другие материалы по этой песне:
  • Аккорды и текст

Страница создана 19.04.2012
http://primanota.ru/fotheringay/the-way-i-feel-chords.htm
Привет, Гость.
Предлагаем пройти революционный курс по гитаре.
Подарок от PrimaNota.Ru, забирай!