PrimaNota.ru - самый крупный в мире бесплатный архив песенных текстов, аккордов, табулатур и нот


Foster The People - Love - аккорды и текст, таба, видео

Регистрация Запомнить меня
Войти через:  Facebook Google Twitter Vk Yandex Mail.ru

Foster The People - Love - аккорды и текст, таба, видео

Печатать
Просмотров: 504
Love
Foster The People
  Cm              Cm       Gm    Cm     Cm      Cm      Gm      Fm
e|--------------|--------x-----|--------------|--------x------|-------------|
B|---4-x----4-x-|---4-x--x-----|---4-x----4-x-|---4-x--x------|--1-x----1-x-|
G|---5-x----5-x-|---5-x--x---3-|---5-x----5-x-|---5-x--x----3-|--1-x----1-x-|
D|---5-x----5-x-|---5-x--x--5--|---5-x----5-x-|---5-x--x---5--|--3-x----3-x-|
A|-3------3-----|-3------x-----|-3------3-----|-3------x------|-------------|
E|--------------|--------x-3---|--------------|--------x-3----|-1-----1-----|
 
  Fm
e|-------------|
B|--1-x----1-x-|
G|--1-x----1-x-| This is repeated through all the verses.
D|--3-x----3-x-|
A|-------------| 
E|-1-----1-----|  
   
   Cm
Hello, my name is Mark 
I play gentlemen's games
And I can slip through and creepin'
Through the night's parade
          Fm
I shake a hand or two
I tip my hat to you
           Cm
I'm always runnin' and a-jumpin'
Like a fool who would do
On through the wild, I see her
She sees me we could be something, it's exciting
I wanna run away
            Fm
But I don't move, I stay
I talk to her, I say
        Cm
You you you were meant for me
Oh I can't speak, I think I'm falling in

Chorus:

Ab    Bb    Cm             
Love, love, love
Bb         Cm       
  It could be a wonderful
Ab    Bb   Gm
Thing like love
Fm      Cm 
 It can make you crazy

Sarah, she's a cougar
Got moves like barracudas
On the hunt for the ones
That look under twenty two years
Got her head up high
High heels that match her thighs
And she be spending lots of money
Her friends, think she's real funny
She says "hey look at me"
"You will see that I'm a queen"
Got experience to give up
Like you never lived
But all the boys just run
She never has a fun
Oh yeah, but Sarah
She don't care, she keeps looking
Cause she's hoping for

Chorus x2

Oooh ooh ooh oooh ooh yeah yeah [x2]

With chords from chorus:

I got the fever
Got the fever
Got the fever yeah,
I said she's got the fever
Got the fever
Yeah, I'm falling in love
He's got the fever
Got the fever
Got the fever
They've got the fever
Got the fever
Yeah I'm falling in

Chorus x2
Добавлено: 28.02.2014
Другие материалы по этой песне:
  • Аккорды и текст

Страница создана 30.05.2012
http://primanota.ru/foster-the-people/love-chords.htm
Привет, Гость.
Предлагаем пройти революционный курс по гитаре.
Подарок от PrimaNota.Ru, забирай!