PrimaNota.ru - самый крупный в мире бесплатный архив песенных текстов, аккордов, табулатур и нот


Foster Monkey - Springer - таба, видео

Регистрация Запомнить меня
Войти через:  Facebook Google Twitter Vk Yandex Mail.ru

Foster Monkey - Springer - таба, видео

Печатать
Просмотров: 56
Artist: Foster Monkey
Title: Springer
Album: Foster Monkey-Live in France
Transcribed by: Skippy Handleman
Email: johndoealias@yahoo.com

  This transcription is my own work>>


Drop D tuning: D A D G B E

Use the most crass solid state 
distortion available to you, and 
try to jump around like a monkey...


Verse- (so she had an alien's baby...)

------------------------------------------------------------------------------
------------------------------------------------------------------------------
-7-----3---------------7-----3------------7-----3-----------------------------
-7-----3----2--3--2----7-----3----3--2----7-----3----2--3--2------------------
-5-----1----2--3--2----5-----1----3--2----5-----1----2--3--2------------------
-0----------2--3--2----0----------3--2----0----------2--3--2------------------
                                                      
                       

------------------------------------------------------------------------------
------------------------------------------------------------------------------
------------------------------------------------------------------------------
-3--3--3--5--5--5--5--5-------------------------------------------------------
-3--3--3--3--3--3--4--4-------------------------------------------------------
-3--3--3----------------------------------------------------------------------
                                                      
                       

Chorus- (talk show...)

------------------------------------------------------------------------------
---------------------------------------------------6--------------------------
--------------7--5-----5--------------------7--5------------------------------
-------5-6-7-------------------------5-6-7------------------------------------
-5------------------8-----7----5----------------------------------------------
-0-----------------------------0----------------------------------------------
                                                      
                       

------------------------------------------------------------------------------
------------------------------------------------------------------------------
--------------7--5-----5------------------------------------------------------
-------5-6-7------------------------------------------------------------------
-5------------------8-----7------5--3--5-----5--3--5--------------------------
-0----------------------------------------------------------------------------
                                                      
                       

Bridge

--------------------0---------------------------------------------------------
-9-----9--------------3---3---------------------------------------------------
-9-----9---9------------2---2-------------------------------------------------
-7-----7---7------------------------------------------------------------------
-5-----5---5------------------------------------------------------------------
-0-----0---0-------------------0----------------------------------------------
                                                      
                                                      
                                        

Outro

------------------------------------------------------------------------------
------------------------------------------------------------------------------
----------5--5--5--5--------------5--5--5--5--------------5--5--5-------------
-3--3--3--5--5--5--5--3--3--3--3--5--5--5--5--3--3--3--3--5--5--5--5--5-------
-3--3--3--3--3--3--3--3--3--3--3--3--3--3--3--3--3--3--3--3--3--3--4--4-------
-3--3--3--------------3--3--3--3--------------3--3--3--3----------------------
                                                      
                       

------------------------------------------------------------------------------
------------------------------------------------------------------------------
-7----------------------------------------------------------------------------
-7--------------0-------------------------------------------------------------
-5--------------0-------------------------------------------------------------
----------------0-------------------------------------------------------------
                                                      
                       

Bacon + eggs, coming up!
     
Добавлено: 16.08.2013
Другие материалы по этой песне:
  • Аккорды и текст

Страница создана 16.08.2013
http://primanota.ru/foster-monkey/springer-chords.htm
Привет, Гость.
Предлагаем пройти революционный курс по гитаре.
Подарок от PrimaNota.Ru, забирай!