PrimaNota.ru - самый крупный в мире бесплатный архив песенных текстов, аккордов, табулатур и нот


Fossils - Bishakta Manush - аккорды и текст, таба, видео

Регистрация Запомнить меня
Войти через:  Facebook Google Twitter Vk Yandex Mail.ru

Fossils - Bishakta Manush - аккорды и текст, таба, видео

Печатать
Просмотров: 153
Bishakta Manush
Fossils
**********************************
Song - Bishakta Manush (4:43)
Artist - Fossils
Album - Fossils
**********************************
Tuning: E B G D A E

Chords Used:

E#m -  8  8 10 10  9  8

C#  -  4  4  6  6  6  4

D#  -  6  6  8  8  8  6

C   -  3  3  5  5  5  3  or  8 10 10  9  8  8 
**********************************
Notes - 

(1) In the Intro you will find a "(10)". It is the bass note. If you have a bass
accompanying you, you need not play it.

(2) Play the Intro in the background of the 1st stanza.

(3) Bass and keys start after IntroX2.

(4) Drums and vocls start after IntroX4.

(5) Except for the Intro, the whole song is on distortion.
**********************************

Intro -

	|-------------------------------------------------------|e
	|---8-------------9-----------9--------------9----------|B
	|-------------10----------10-----10------10-----10------|G
	|------8--10---------10-------------10-------------10---|D
	|-------------------------------------------------------|A
	|-------------------------------------------------------|E

	
She chenalo ... Aamake ...
A shohorer ... Oligoli ...
She pathalo ... Upohar ...
Ekta Chokrobuho ...

	      E#m
Shey chokrobuhe aajo
	  C#
Bondi hoye aachi
	      Eb
Shey chorabali aajo
             E#m
Grash korchhe aamake

	  E#m
Bhalobashi taake
		C#
Tar nishidhdho oshukher
	Eb
Ekrokha virus-E
	    C
More jaowar aashay

Lead 1-

	|-----6---------6-8-6-6-88-8-6-----------|e
	|---6---9-6-9-6----------------9-6-9-6---|B
	|----------------------------------------|G
	|----------------------------------------|D
	|----------------------------------------|A
	|----------------------------------------|E

	      C#
Ami bhalobashi jake
	       Eb	E#m
She Bishakta Manush

Shobuj tar shira
	     Eb		E#m
Byanka she angul
	      C#
Neelabho tar thote
        E#m
Shaper chobol
	C#
Neeloy olinde
		E#m	C
Khamkheyali probaho

		C#
Aami dekhechi aadhare
		  Eb	E#m
Aami dekhechi aaloke

Jemon kore dekhe
	     Eb		E#m
Kono mughdho baloke
	      C#
Bibhotsho shorire
	    E#m
Bishakta khoto
	       C#
Abishshasho ghrinar
	    E#m		C
Protima sharshoto

	      E#m
Shey chokrobuhe aajo
	  C#
Bondi hoye aachi
	      Eb
Shey chorabali aajo
             E#m
Grash korchhe aamake

	  E#m
Bhalobashi taake
		C#
Tar nishidhdho oshukher
	Eb
Ekrokha virus-E
	    C
More jaowar aashay

Lead 2- 
Добавлено: 13.03.2012
Другие материалы по этой песне:

Страница создана 13.03.2012
http://primanota.ru/fossils/bishakta-manush-chords.htm
Привет, Гость.
Предлагаем пройти революционный курс по гитаре.
Подарок от PrimaNota.Ru, забирай!