PrimaNota.ru - самый крупный в мире бесплатный архив песенных текстов, аккордов, табулатур и нот


Fossil - Bricks For A Mattress - таба, видео

Регистрация Запомнить меня
Войти через:  Facebook Google Twitter Vk Yandex Mail.ru

Fossil - Bricks For A Mattress - таба, видео

Печатать
Просмотров: 70
Fossil - Bricks For A Mattress (Guitar Tab)

Drop D Tuning


Intro / Verse  0:00 - 0:48
E|-------------------------------------------|
B|-------------------------------------------|
G|-------------------------------------------|
D|--------9--------------4--------------4----|  x5
A|----9--------------5--------------5--------|
D|--9---9----------5---5----------5---5------|


0:48 - 1:01
E|-------------------------------------------|
B|-------------------------------------------|
G|--11-11-----------------7------------------|
D|--9--9------------------5------------------|
A|--9--9------------------5------------------|
D|--9--9------------------5------------------|
       M

1:01 - 1:27
E|--------------------------------------------------|
B|--------------------------------------------------|
G|--11-11-11-11-11-11-11-11-9--9--9--9--9--9--9--9--|
D|--9--9--9--9--9--9--9--9--7--7--7--7--7--7--7--7--|
A|--9--9--9--9--9--9--9--9--7--7--7--7--7--7--7--7--|
D|--9--9--9--9--9--9--9--9--7--7--7--7--7--7--7--7--|

E|--------------------------------------------------|
B|--------------------------------------------------|
G|--7--7--7--7--7--7--7--7--7--7--7--7--7--7--7--9--|
D|--5--5--5--5--5--5--5--5--5--5--5--5--5--5--5--7--|  x2
A|--5--5--5--5--5--5--5--5--5--5--5--5--5--5--5--7--|
D|--5--5--5--5--5--5--5--5--5--5--5--5--5--5--5--7--|


1:27 - 1:40
E|--------------------------------------------------|
B|--------------------------------------------------|
G|--11-11-11-11-11-11-11-11-9--9--9--9--9--9--9--9--|
D|--9--9--9--9--9--9--9--9--7--7--7--7--7--7--7--7--|
A|--9--9--9--9--9--9--9--9--7--7--7--7--7--7--7--7--|  x2
D|--9--9--9--9--9--9--9--9--7--7--7--7--7--7--7--7--|


1:40 - 1:52
E|----------------------------------------|
B|----------------------------------------|
G|----------------------------------------|
D|-----4-----4-----4------4-----4-----4---|
A|---5-----5----5-5-----5-----5----5-5----|
D|--5-5---5-5----5-----5-5---5-5----5-----|

E|----------------------------------------|
B|----------------------------------------|
G|----------------------------------------|
D|-----9-----9-----9------4-----4-----4---|
A|---9-----9----9-9-----5-----5----5-5----|
D|--9-9---9-9----9-----5-5---5-5----5-----|


1:53 - 2:18
E|----------------------------------------|
B|----------------------------------------|
G|----------------------------------------|
D|-----4-----4-----4------4-----4-----4---|
A|---5-----5----5-5-----5-----5----5-5----|
D|--5-5---5-5----5-----5-5---5-5----5-----|

E|----------------------------------------|
B|----------------------------------------|
G|----------------------------------------|
D|-----9-----9-----9------4-----4-----4---|
A|---9-----9----9-9-----5-----5----5-5----|  x2
D|--9-9---9-9----9-----5-5---5-5----5-----|


2:19 - 2:25
E|----------------------------------------|
B|----------------------------------------|
G|----------------------------------------|
D|-----4-----4-----4------4-----4-----4---|
A|---5-----5----5-5-----5-----5----5-5----|
D|--5-5---5-5----5-----5-5---5-5----5-----|


2:25 - 2:37
E|-------------------------------------------|
B|-------------------------------------------|
G|--11-11-----------------7------------------|
D|--9--9------------------5------------------|
A|--9--9------------------5------------------|
D|--9--9------------------5------------------|
       M

2:38 - 3:31
E|---------------------------------------------------|
B|---------------------------------------------------|
G|--11-11-11-11-11-11-11-11-11-11-11-11-11-11-11-11--|
D|--9--9--9--9--9--9--9--9--9--9--9--9--9--9--9--9---|
A|--9--9--9--9--9--9--9--9--9--9--9--9--9--9--9--9---|
D|--9--9--9--9--9--9--9--9--9--9--9--9--9--9--9--9---|

E|--------------------------------------------------|
B|--------------------------------------------------|
G|--7--7--7--7--7--7--7--7--7--7--7--7--7--7--7--9--|
D|--5--5--5--5--5--5--5--5--5--5--5--5--5--5--5--7--|  x4
A|--5--5--5--5--5--5--5--5--5--5--5--5--5--5--5--7--|
D|--5--5--5--5--5--5--5--5--5--5--5--5--5--5--5--7--|


3:31
E|---------------------------------------------|
B|---------------------------------------------|
G|--11-11--------------------------------------|
D|--9--9---------------------------------------|
A|--9--9---------------------------------------|
D|--9--9---------------------------------------|
       M
Добавлено: 02.12.2015
Другие материалы по этой песне:
  • Аккорды и текст

Страница создана 02.12.2015
http://primanota.ru/fossil/bricks-for-a-mattress-chords.htm
Привет, Гость.
Предлагаем пройти революционный курс по гитаре.
Подарок от PrimaNota.Ru, забирай!