PrimaNota.ru - самый крупный в мире бесплатный архив песенных текстов, аккордов, табулатур и нот


Forward Russia - We Are Grey Matter - таба, видео

Регистрация Запомнить меня
Войти через:  Facebook Google Twitter Vk Yandex Mail.ru

Forward Russia - We Are Grey Matter - таба, видео

Печатать
Просмотров: 119
Авторы: ¡Forward, Russia!

Intro:

Pt. 1:

D|---------------------------------------------------------------------|
A|--12-----------12--------15-15-15---12-----------12--------15-15-15--|
F|--12---12-12---12---12---14-14-14---12---12-12---12---12---14-14-14--|
C|-------14-14--------14-------------------14-14--------14-------------|
G|---------------------------------------------------------------------|
D|---------------------------------------------------------------------|
Call, Response...

D|-----------------------------------|
A|--12-----------12--------15-15-15--|
F|--12---12-12---12---12---14-14-14--|             ENTER DRUMS
C|-------14-14--------14-------------|
G|-----------------------------------|
D|-----------------------------------|
I love this cage so im not gonna rattle...


Pt. 2:

D|---------------------------------|
A|-----10----12-------10------8----|
F|--12----------11-------9------7--|
C|---------------------------------|
G|---------------------------------|
D|---------------------------------|
Through Foggy Mist...

D|----------------------------------|
A|-----10----12-------10------8/12--|
F|--12----------11-------9----------|
C|----------------------------------|
G|----------------------------------|
D|----------------------------------|
I payed for each repair...

Sec. 1:

Strum these chords in time with whiskas ;)

Guitar 1:

D|--------------------------------------|
A|----------15------17------15------15--|
F|--14----------------------------------|
C|--12------12------14------12------12--|
G|--------------------------------------|
D|--------------------------------------|
Let me make this betrayal...


Guitar 2:

D|---------------------------------------|
A|--------------------------------0h2p0--|
F|------------4p0--2p0-------------------|
C|--4p0--2p0------------4p0--2p0---------|
G|---------------------------------------|
D|---------------------------------------|
The failure of the super-ego...

REPEAT UNTIL...

Sec. 2:

"...Dim-wits at the helm"

D|---------------------------------------------------------|
A|---------------------------------------------------------|
F|--12-12-12-12-12-12-12-12-12-12-12-12-12-14p11-12-14p11--|
C|---------------------------------------------------------|
G|---------------------------------------------------------|
D|---------------------------------------------------------|

D|---------------------------------------------------|
A|---------------------------------------------------|
F|---------------------------------------------------|
C|--12-12-12-12-12-12-12-12-12-12-12-12-12-12-12-12--|
G|---------------------------------------------------|
D|---------------------------------------------------|


And I still recall...
-----------------------------------------------
And we were not the only ones!

D|--12------10/------5------3-------------12/--|
A|--12------12/------5------3------5------12/--|
F|---------------------------------4-----------|
C|---------------------------------------------|
G|---------------------------------------------|
D|---------------------------------------------|

REPEAT SEC. 1

Sec. 3:

Again, strum chords in time.

D|------------------------------------------------------|
A|--17-----15-----10-----13-----12----15-----10-----13--|
F|------------------------------------------------------|
C|--14-----12-----7------10-----9-----12-----7------10--|
G|------------------------------------------------------|
D|------------------------------------------------------|
We are the membranes of the...

We'll trap your worlds...

Sec. 4:

Strum chords in time... you get the idea.

D|--------------------------------------------|
A|-----------------------17---15---12-12--20--|
F|--9---7---12---16---------------------------|
C|-----------------------14---12---9--9---17--|
G|--7---5---10---14---------------------------|
D|--------------------------------------------|


D|-------------------------------------------|
A|-------------------------------------------|
F|--9---11--12---11------9---11---12---16----|
C|-------------------------------------------|
G|--7---9---10---9-------7---9----10---14----|
D|-------------------------------------------|
We are the membranes...

Sec. 5:

D|-----------------------------------------|
A|--10p0------------10p0-------------------|
F|--------7p0--4p0--------7p0--4p0--4p2p0--|
C|-----------------------------------------|
G|-----------------------------------------|
D|-----------------------------------------|

D|--10p0------------10p0----------------10------|
A|--------7p0-------------7p0-------10------10--|
F|-------------7p0-------------7p0--------------|
C|----------------------------------------------|
G|----------------------------------------------|
D|----------------------------------------------|

D|-------7p0----------10p0--8-------|
A|--5p0-------10p8p0----------10-8--|
F|----------------------------------|
C|----------------------------------|
G|----------------------------------|
D|----------------------------------|

D|---------------------------------------|
A|--------------------------------0h2p0--|
F|------------4p0--2p0-------------------|
C|--4p0--2p0------------4p0--2p0---------|
G|---------------------------------------|
D|---------------------------------------|

REPEAT x3

I CANT BE ARSED TO PUT THE LAST BIT IN. ITS THE KIND OF THING YOU CAN JUST IMPROVISE.

HAVE FUN!!
Добавлено: 14.07.2012
Другие материалы по этой песне:
  • Аккорды и текст

Страница создана 14.07.2012
http://primanota.ru/forward-russia/we-are-grey-matter-chords.htm
Привет, Гость.
Предлагаем пройти революционный курс по гитаре.
Подарок от PrimaNota.Ru, забирай!