PrimaNota.ru - самый крупный в мире бесплатный архив песенных текстов, аккордов, табулатур и нот


Forward Russia - Twelve - текст песни, таба, бас-таба, видео

Регистрация Запомнить меня
Войти через:  Facebook Google Twitter Vk Yandex Mail.ru

Forward Russia - Twelve - текст песни, таба, бас-таба, видео

Печатать
Просмотров: 176
Авторы: Tom Woodhead, Katie Nicholls, Rob Canning

-------------------------------------------------------------------------------
                             12- ¡Forward, Russia! (www.forwardrussia.com)
-------------------------------------------------------------------------------
Tabbed by: Fraz
Email: fraz_muhoney@hotmail.com

Tuning: Erm normal

Right, this is the demo but i think it's pretty much the same as the single.
And sorry about the fact it doesn't make sense, i'm just crap at writing these
things. It sounds fine when i play it but it may not translate to tab that well.

Intro:

e|----10---------------10------------10----------------------10--12--12------|
B|----------12--12----------12--12--------12---------12----------------------|
G|---------------------------------------------11---------11-----------------|
D|---------------------------------------------------------------------------|
A|---------------------------------------------------------------------------|
E|---------------------------------------------------------------------------|

"nooooooooooooooow" (played twice) (second section)

e|----14---------------14--------------14------------17----------15---------|
B|--------12-----------------12--------------12------------12---------12----|
G|-------------12-----------------12----------------------------------------|
D|--------------------------------------------------------------------------|
A|--------------------------------------------------------------------------|
E|--------------------------------------------------------------------------|
Then after he says "and your consience is looow" (for the last time in the verse)

e|--17----------15-----------------14----------------12----------------------|
B|-------12----------12-----------------12---------------12------15----------|
G|------------------------12------------------12-------------12-------12-----|
D|---------------------------------------------------------------------------|
A|---------------------------------------------------------------------------|
E|---------------------------------------------------------------------------|
e|---------------------------------------------------------------------------|
B|------------15-15-15-15-15-15-15-15-15-15-15-15-15-15--x15-----------------|
G|---12-------14-14-14-14-14-14-14-14-14-14-14-14-14-14--x14-----------------|
D|---------------------------------------------------------------------------|
A|---------------------------------------------------------------------------|
E|---------------------------------------------------------------------------|

 "but he couldn't find another way" (chorus)

e|------------------------------/10-----------------------------------------|
B|--------7-(a few times)-7-7---/10---(a few times)-------------------------|
G|--------7---------------6-6---/11-----------------------------------------|
D|--------------------------------------------------------------------------|
A|--------------------------------------------------------------------------|
E|--------------------------------------------------------------------------|
  It then returns to the second section after the chorus.

For the "99,205,pyrite, trickles down the spines.." bit, he plays.

e|--------------------------------------------------------------------------|
B|--------------------------------------------------------------------------|
G|----------2-2-2-2---------------------------------------------------------|
D|--0-0-0-0----------4-4-/5-5-44-22--(repeated)-----------------------------|
A|--------------------------------------------------------------------------|
E|--------------------------------------------------------------------------|

Then it returns to the intro and chorus etc.

Hope it works, but it probably doesn't.

| /  slide up
| \  slide down
| h  hammer-on
| p  pull-off
| ~  vibrato
| +  harmonic
| x  Mute note
===============================================================================
Добавлено: 15.05.2012
Вам также может быть интересно:
Другие материалы по этой песне:
  • Аккорды и текст

Страница создана 17.03.2012
http://primanota.ru/forward-russia/twelve-chords.htm
Привет, Гость.
Предлагаем пройти революционный курс по гитаре.
Подарок от PrimaNota.Ru, забирай!