PrimaNota.ru - самый крупный в мире бесплатный архив песенных текстов, аккордов, табулатур и нот


Forward Russia - Sixteen - бас-таба, видео

Регистрация Запомнить меня
Войти через:  Facebook Google Twitter Vk Yandex Mail.ru

Forward Russia - Sixteen - бас-таба, видео

Печатать
Просмотров: 111
Band: ¡Forward, Russia!
Song: Sixteen
Album: Give Me A Wall
Tabbed By: Dave Sheehan (daveys14@hotmail.com)

Standard Tuning (E-G-A-D)

Note: Apologies about the length of the first verse. There is a sort of pattern but I
it this way while listening
to the song so I don't want to go back and change it now. After playing the Intro /
Verse a couple of times you
will probably see it yourself (i.e. there's always an A to C change, there's always
a C to B / C to E change, etc.)

Note 2: Listen to Katie shouting "1 - 2 - 3 - 4 - 5 - 6 - 7 - 8 - 9 - 10" for all
for an indication of when
to switch to the next note.

Good luck!

=====================
 Intro / First Verse
=====================

4 bars - no bass

G|-----------------------------------------------------------------|
D|-----------------------------------------------------------------|
A|-5-5-5-5-5-5-5-5-5-5-5-5-5-5-5-5---------------------------------|
E|---------------------------------5-5-5-5-5-5-5-5-5-5-5-5-5-5-5-5-|

G|-----------------------------------------------------------------|
D|-----------------------------------------------------------------|
A|-3-3-3-3-3-3-3-3-3-3-3-3-3-3-3-3-3-3-3-3-3-3-3-3-3-3-3-3-3-3-3-3-|
E|-----------------------------------------------------------------|

G|-----------------------------------------------------------------|
D|-----------------------------------------------------------------|
A|-2-2-2-2-2-2-2-2-2-2-2-2-2-2-2-2-2-2-2-2-2-2-2-2-2-2-2-2-2-2-2-2-|
E|-----------------------------------------------------------------|

G|-----------------------------------------------------------------|
D|-----------------------------------------------------------------|
A|-----------------------------------------------------------------|
E|-3-3-3-3-3-3-3-3-3-3-3-3-3-3-3-3-5-5-5-5-5-5-5-5-5-5-5-5-5-5-5-5-|

G|-----------------------------------------------------------------|
D|-----------------------------------------------------------------|
A|---------------------------------3-3-3-3-3-3-3-3-3-3-3-3-3-3-3-3-|
E|-5-5-5-5-5-5-5-5-5-5-5-5-5-5-5-5---------------------------------|

G|-----------------------------------------------------------------|
D|-----------------------------------------------------------------|
A|-7-7-7-7-7-7-7-7-7-7-7-7-7-7-7-7-5-5-5-5-5-5-5-5-5-5-5-5-5-5-5-5-|
E|-----------------------------------------------------------------|

G|-----------------------------------------------------------------|
D|-----------------------------------------------------------------|
A|---------------------------------3-3-3-3-3-3-3-3-3-3-3-3-3-3-3-3-|
E|-5-5-5-5-5-5-5-5-5-5-5-5-5-5-5-5---------------------------------|

G|-----------------------------------------------------------------|
D|-----------------------------------------------------------------|
A|-2-2-2-2-2-2-2-2-2-2-2-2-2-2-2-2---------------------------------|
E|---------------------------------3-3-3-3-3-3-3-3-3-3-3-3-3-3-3-3-|

G|-----------------------------------------------------------------|
D|-----------------------------------------------------------------|
A|---------------------------------3-3-3-3-3-3-3-3-3-3-3-3-3-3-3-3-|
E|-5-5-5-5-5-5-5-5-5-5-5-5-5-5-5-5---------------------------------|

G|-----------------------------------------------------------------|
D|-----------------------------------------------------------------|
A|-7-7-7-7-7-7-7-7-7-7-7-7-7-7-7-7-5-5-5-5-5-5-5-5-5-5-5-5-5-5-5-5-|
E|-----------------------------------------------------------------|

G|-----------------------------------------------------------------|
D|-----------------------------------------------------------------|
A|---------------------------------3-3-3-3-3-3-3-3-3-3-3-3-3-3-3-3-|
E|-5-5-5-5-5-5-5-5-5-5-5-5-5-5-5-5---------------------------------|

G|-----------------------------------------------------------------|
D|-----------------------------------------------------------------|
A|-3-3-3-3-3-3-3-3-3-3-3-3-3-3-3-3-2-2-2-2-2-2-2-2-2-2-2-2-2-2-2-2-|
E|-----------------------------------------------------------------|

G|-----------------------------------------------------------------|
D|-----------------------------------------------------------------|
A|-2-2-2-2-2-2-2-2-2-2-2-2-2-2-2-2---------------------------------|
E|---------------------------------3-3-3-3-3-3-3-3-3-3-3-3-3-3-3-3-|

G|-----------------------------------------------------------------|
D|-----------------------------------------------------------------|
A|-----------------------------------------------------------------|
E|-5-5-5-5-5-5-5-5-5-5-5-5-5-5-5-5-5-5-5-5-5-5-5-5-5-5-5-5-5-5-5-5-|

G|-----------------------------------------------------------------|
D|-----------------------------------------------------------------|
A|-3-3-3-3-3-3-3-3-3-3-3-3-3-3-3-3-7-7-7-7-7-7-7-7-7-7-7-7-7-7-7-7-|
E|-----------------------------------------------------------------|

G|-------------------------------|
D|-------------------------------|
A|-5-5-5-5-5-5-5-5-5-5-5-5-5-5-5-|
E|-------------------------------|

==========
 Bridge 1 (listen to Katie's vocals.. "1 - 2 - 3.. etc.. 10")
==========

G|-----------------------------------------------------------------|
D|-----------------------------------------------------------------|
A|---------------------------------33-33-33-33-33-33-33-33-33-33-3-|
E|-55-55-55-55-55-55-55-55-55-55-5---------------------------------| x3

=========
 Verse 2
=========

G|-----------------------------------------------------------------|
D|-----------------------------------------------------------------|
A|-55-55-55-55-5-5-----------------33-33-33-33-3-3-22-22-22-22-2-2-|
E|-----------------55-55-55-55-5-5---------------------------------|

G|-----------------------------------------------------------------|
D|-----------------------------------------------------------------|
A|---------------------------------33-33-33-33-3-3-7777777777777777|
E|-33-33-33-33-3-3-55-55-55-55-5-5---------------------------------|

G|-----------------------------------------------------------------|
D|-----------------------------------------------------------------|
A|-55-55-55-55-5-5-----------------33-33-33-33-3-3-22-22-22-22-2-2-|
E|-----------------55-55-55-55-5-5---------------------------------|

===========
 Bridge 2 - PLAY TWICE
===========

G|-----------------------------------------------------------------|
D|-----------------------------------------------------------------|
A|-----------------------------------------------------------------|
E|-5-5-5-5-5-5-5-5-5-5-5-5-5-5-5-5-5-5-5-5-5-5-5-5-5-5-5-5-5-5-5-5-|

G|---------------------------------|
D|---------------------------------|
A|-33-33-33-33-33-33-33-33-33-33-3-|
E|---------------------------------|

=========
 Verse 3
=========

G|------------------------------------------------------------------------|
D|----7-7-7-7-7-7-7-7-7-7-7-7-7-7-7-7-----7-7-7-7-7-7-7-7-7-7-7-7-7-7-7-7-|
A|------------------------------------------------------------------------|
E|-555--------------------------------555---------------------------------| x2

G|------------------------------------------------------------------------|
D|----5-5-5-5-5-5-5-5-5-5-5-5-5-5-5-5-----5-5-5-5-5-5-5-5-5-5-5-5-5-5-5-5-|
A|-333--------------------------------333---------------------------------|
E|------------------------------------------------------------------------|

G|------------------------------------------------------------------------|
D|----7-7-7-7-7-7-7-7-7-7-7-7-7-7-7-7-----7-7-7-7-7-7-7-7-7-7-7-7-7-7-7-7-|
A|------------------------------------------------------------------------|
E|-555--------------------------------555---------------------------------|

G|------------------------------------------------------------------------|
D|----5-5-5-5-5-5-5-5-5-5-5-5-5-5-5-5-----5-5-5-5-5-5-5-5-5-5-5-5-5-5-5-5-|
A|-333--------------------------------333---------------------------------|
E|------------------------------------------------------------------------|

==========
 Bridge 3
==========

G|-----------------------------------------------------------------|
D|-----------------------------------------------------------------|
A|-----------------------------------------------------------------|
E|-5-5-5-5-5-5-5-5-5-5-5-5-5-5-5-5-5-5-5-5-5-5-5-5-5-5-5-5-5-5-5-5-|

G|---------------------------------|
D|---------------------------------|
A|-33-33-33-33-33-33-33-33-33-33-3-|
E|---------------------------------|

================
 Bridge 1 again
================

G|-----------------------------------------------------------------|
D|-----------------------------------------------------------------|
A|---------------------------------33-33-33-33-33-33-33-33-33-33-3-|
E|-55-55-55-55-55-55-55-55-55-55-5---------------------------------| x4

==============
 Last section
==============

G|-----------------------------------------------------------------|
D|-----------------------------------------------------------------|
A|-----------------------------------------------------------------|
E|-5-5-5-5-5-5-5-5-5-5-5-5-5-5-5-5-5-5-5-5-5-5-5-5-5-5-5-5-5-5-5-5-|
Добавлено: 03.07.2012
Другие материалы по этой песне:
  • Аккорды и текст

Страница создана 03.07.2012
http://primanota.ru/forward-russia/sixteen-chords.htm
Привет, Гость.
Предлагаем пройти революционный курс по гитаре.
Подарок от PrimaNota.Ru, забирай!