PrimaNota.ru - самый крупный в мире бесплатный архив песенных текстов, аккордов, табулатур и нот


Forward Russia - Seventeen - бас-таба, видео

Регистрация Запомнить меня
Войти через:  Facebook Google Twitter Vk Yandex Mail.ru

Forward Russia - Seventeen - бас-таба, видео

Печатать
Просмотров: 158
Band: ¡Forward, Russia! - Seventeen
Song: Seventeen
Album: Give Me A Wall
Tabbed By: Dave Sheehan (daveys14@hotmail.com)

=====
INTRO (2 bars)
=====

No bass

=======
vERSE 1
=======
                 x2                  x2
G|------------------|------------------|
D|------------------|------------------|
A|------------------|-33-33-33-33-2222-|
E|-33-33-33-33-2222-|------------------|

                 x2                  
G|------------------|
D|------------------|
A|------------------|
E|-33-33-33-33-2222-|

========
VERSE 2
========

G|-----------------------------------------------------------------|
D|-----------------------------------------------------------------|
A|-33333333333333333333333333333333-7777777777777777-5555555555555-|
E|-----------------------------------------------------------------|

G|-----------------------------------------------------------------|
D|---------------------------------------------------5555555555555-|
A|-33333333333333333333333333333333-7777777777777777---------------|
E|-----------------------------------------------------------------|

========
VERSE 3
========
                  x2                x2
G|------------------|----------------|
D|------------------|----------55-54-|
A|-33-33-33-33-2222-|----55-22-------|
E|------------------|-33-------------|

                  x2               x2
G|------------------|----------------|
D|----55-22-77-7775-|----------55-54-|
A|-33---------------|----55-22-------|
E|------------------|-33-------------|

======
BRIDGE
======

G|------------------|
D|----55-22-77-7775-|
A|-33---------------|
E|------------------|

=========
MIDDLE 8?
=========
                                                       
G|--------------------------------------------------------|
D|----------------------------------------------555555555-|
A|-33333333-55555555-77777777-77777777-77777777-----------|
E|--------------------------------------------------------|

G|-------------------------------------------------------------------------|
D|-------------------------------------------------------------------------|
A|-3333333333333333-55555555555555555-77777777-77777777-77777777-555555555-|
E|-------------------------------------------------------------------------|

                  x2                x2
G|--------------5-5-|----------------|
D|----55-22-777--7--|----------55-54-|
A|-33---------------|----55-22-------|
E|------------------|-33-------------|

                  x2               x2
G|--------------5-5-|----------------|
D|----55-22-777--7--|----------55-54-|
A|-33---------------|----55-22-------|
E|------------------|-33-------------|

==========
SYNTH BIT
==========

No bass. Synth tabbed on bass as follows as the bass *may* be playing this too:

    x10                   x14
G|-----|---------------|-----|---------------|
D|--57-|-99-1010-99-77-|--57-|-99-1010-99-77-|
A|-7---|---------------|-7---|---------------|
E|-----|---------------|-----|---------------|

Not sure about this next bit - may be no bass. If there is, play lightly:
                                                                                                   x2
G|---------------------------------------------------------------------------------------------------|
D|---------------------------------------------------------------------------------------------------|
A|-3-3-3-3-3-3-3-3-5-5-5-5-5-5-5-5-7-7-7-7-7-7-7-7-7-7-7-7-7-7-7-7-7-7-7-7-7-7-7-7-7-7-7-7-7-7-7-7-7-|
E|---------------------------------------------------------------------------------------------------|

                                                                         x2
G|-------------------------------------------------------------------------|
D|-------------------------------------------------------------------------|
A|-3333333333333333-55555555555555555-77777777-77777777-77777777-777777777-|
E|-------------------------------------------------------------------------|

Before the next bit, do a bit of vibrato -

         x4
G|---------|
D|---------|
A|-7--vvvv-|
E|---------|

========
VERSE 2
========

G|-----------------------------------------------------------------|
D|-----------------------------------------------------------------|
A|-33333333333333333333333333333333-7777777777777777-5555555555555-|
E|-----------------------------------------------------------------|

G|-----------------------------------------------------------------|
D|---------------------------------------------------5555555555555-|
A|-33333333333333333333333333333333-7777777777777777---------------|
E|-----------------------------------------------------------------|

======
OUTRO
======
                 x2                  x2
G|------------------|------------------|
D|------------------|------------------|
A|-33-33-33-33-2222-|------------------|
E|------------------|-33-33-33-33-2222-|

                 x2                  x2
G|------------------|------------------|
D|------------------|------------------|
A|-33-33-33-33-2222-|------------------|
E|------------------|-33-33-33-33-2222-|
Добавлено: 21.05.2012
Другие материалы по этой песне:
  • Аккорды и текст

Страница создана 21.05.2012
http://primanota.ru/forward-russia/seventeen-chords.htm
Привет, Гость.
Предлагаем пройти революционный курс по гитаре.
Подарок от PrimaNota.Ru, забирай!