PrimaNota.ru - самый крупный в мире бесплатный архив песенных текстов, аккордов, табулатур и нот


Forward Russia - Nine - таба, видео

Регистрация Запомнить меня
Войти через:  Facebook Google Twitter Vk Yandex Mail.ru

Forward Russia - Nine - таба, видео

Печатать
Просмотров: 105
-------------------------------------------------------------------------------
                             NINE - Forward Russia
-------------------------------------------------------------------------------
Tabbed by: Fraz
Email: fraz_muhoney@hotmail.com

Tuning: Standard

So this is how i play nine, it's slightly different from the proper version, because 
i figured it out to the demo, and Whiskas plays complicated things that i have to paraphrase.

Intro: (the bass notes aren't needed, but it makes it sounds more like the song when playing it alone)


e|--------------------------------------------------------------------------|
B|--------------------------------------------------------------------------|
G|----------------------------------6-6-6-6-6-6-6-6-6-6-6-6-6-6-6-6-6-6-6-6-|
D|----------------------------------7-7-7-7-7-7-7-7-7-7-7-7-7-7-7-7-7-7-7-7-|
A|--5-5-5-5-5-5-5-5-5-5-5-5-5-5-5-5-4-4-4-4-4-4-4-4-7-7-7-5-5-5-4-4-9-9-9-9-|
E|--------------------------------------------------------------------------|

e|--------------------------------------------------------------------------|
B|--------------------------------------------------------------------------|
G|-6-6-6-6-6-6-6-6-6-6-6-6-6-6-6-6-6-6-6------------------------------------|
D|-7-7-7-7-7-7-7-7-7-7-7-7-7-7-7-7-7-7-7------------------------------------|
A|-9-9-9-9-9-9-9-9-9-9-9-9-7-7-7-5-5-5-4------------------------------------|
E|--------------------------------------------------------------------------|

Verse: (according to the demo, but it's pretty much the same)

e|--------------------------------------------------------------------------|
B|-------------10-10--7-7--------------5-5----------------------------------|
G|---7-7--7-7--7--7---7-7----6-6--6-6--6-6--7-7-----------------------------|
D|---7-7--7-7--7--7---7-7----7-7--7-7--7-7--7-7-----------------------------|
A|--------------------------------------------------------------------------|
E|--------------------------------------------------------------------------|

Pre Chorus: ("But they can't distort our love agaaaaain)

e|----------------------------------------------------|
B|----------------------------------------------------|
G|-----------7-7------------2-2-----------6-6---------|
D|------9-------------4-------------7-----------------|
A|----------------------------------------------------|
E|--7-7--7-7------2-2---2-2------5-5--5-5--5----------|   (x2)

e|----------------------------------|
B|----------------------------------|
G|----------------------------------|
D|--4-4-4-4-4-4-4-4-4-4-4-4-5-5-5-5-|
A|--4-4-4-4-4-4-4-4-4-4-4-4-5-5-5-5-|
E|--2-2-2-2-2-2-2-2-2-2-2-2-3-3-3-3-|

Chorus; (according to Whiskas himself, so it must be right)

e|--10-(12 times)-10-(4times)-5-(12times)-5-(4times)-----7-----7----7--------|
B|--10------------10-----------5------------5---------------7-----7----7-----|
G|--11------------12-----------4------------7-------------7-----7------------|
D|--12------------12-----------7------------7-----------9-----9-----9--------|
A|--12------------12-----------7------------7--------------------------------|
E|--10------------10-----------5------------5--------------------------------|

e|-----7-----7----7---------------------------------------------------------|
B|-----7-----7----7---------------------------------------------------------|
G|---7-----7----------------------------------------------------------------|
D|-9-----9------9------4-4-4-4-4-4-4-4-4-4-4-4-4-4-4-4----------------------|
A|---------------------4-4-4-4-4-4-4-4-4-4-4-4-4-4-4-4----------------------|
E|---------------------2-2-2-2-2-2-2-2-3-3-3-3-3-3-3-3----------------------|
                                                    (repeat whole sequence)
(I'm not sure about that end bit, but he says it's right)

Crazy weird bit:

e|--------------------------------------------------------------------------|
B|----------10--7-----------------------7--10--7-10-10----------------------|
G|---7-------------10--8----------8--10-----------------7-7-----7-7---------|
D|-------9----------------10-9-10-----------------------7-7-9-9-7-7---------|
A|----------------------------------------------------------9-9-------------|
E|--------------------------------------------------------------------------|

For the "Lost lost lost in the sea of conjuncture" bit it starts with:
e|------------------|
B|------------------|
G|--7-7------7-7----|
D|--7-7-9-9--7-7----|
A|------9-9---------|    For the first section, then the music cuts out, and
E|------------------|    it's followed by:

e|-------------------------------------------|
B|-------------------------------------------|
G|----7---/10-10-(repeated alot)-------------|
D|----7---/10-10-----------------------------|
A|----5---/8--8------------------------------|
E|-------------------------------------------|

Then there's a chorus, but it leads into the next verse play using the chords A, Bmin, C#min, D

Then first verse is repeated, leading to a chorus with the same chords as the bit before 
"lost lost lost" section.

Ending on a chorus with the A, Bmin, C#min, D chords again. (Whiskas plays really high 
which i don't know)


Again i apologise for the fact it doesn't sound completely the same as the recorded 
but WHiskas does some crazy shiznat on his guitar.

Suggestions for changing it are greatly appreciated.
Fraz


| /  slide up
| \  slide down
| h  hammer-on
| p  pull-off
| ~  vibrato
| +  harmonic
| x  Mute note
Добавлено: 03.05.2012
Другие материалы по этой песне:

Страница создана 05.03.2012
http://primanota.ru/forward-russia/nine-chords.htm
Привет, Гость.
Предлагаем пройти революционный курс по гитаре.
Подарок от PrimaNota.Ru, забирай!