PrimaNota.ru - самый крупный в мире бесплатный архив песенных текстов, аккордов, табулатур и нот


Forward Russia - Fifteen Part 2 - бас-таба, видео

Регистрация Запомнить меня
Войти через:  Facebook Google Twitter Vk Yandex Mail.ru

Forward Russia - Fifteen Part 2 - бас-таба, видео

Печатать
Просмотров: 121
¡Forward, Russia! - Fifteen Pt. 2
Tabbed By: Alex Boyd

Any constructive criticism welcome.

G|-------------------------------------------------------------------------------------- [x4]
D|------------------------------------------------------------------------------------------|
A|------------------------------------------------------------------------------------------|
E|--10-10-10-10--10-10-10-10--10-10-10-10--10-10-10-10--6-6-6-6--6-6-6-6--8-8-8-8--8-8-8-8--| 

G|------------------------------------------------------------------- [x5]
D|-----------------------------------------------------------------------|
A|-----------------------------------------------------------------------|
E|--10-10-10-10-10--10-10-5-5-5--5-5-5-5--6-6-6-6-6--6-6-8-8-8--8-8-8-8--|

G|-------------------------------------- [x2]
D|------------------------------------------|
A|------------------------------------------|
E|--10-10-10-10--5-5-5-5--6-6-6-6--8-8-8-8--| 

G|--------------------------------- [x4]
D|-------------------------------------|
A|-------------------------------------|
E|--10--10-10--5--5-5--6--6-6--8--8-8--|

G|-------------------------------------|
D|-------------------------------------|
A|-------------------------------------|
E|--10~--6/10~--6/10-8-6-5--10-8-6-5~--|

G|----------------------------------------3-------------------------------------------------- [x2]
D|-----------------------------Changes to 4 time for 8 measures----------------------------------|
A|-----------------------------------------------------------------------------------------------|
E|--10-10-10-10-10-10-10-10-10-10-10-10-10-10-10-10-10-10-10-10-10-10-10-10--6~--6-6~--8~--8-8~--| 

G|---------------10-10-10-10-----------10-10-10-10----------------------------------- [x3]
D|--12-12-12-12---------------7-7-7-7---------------8-8-8-8-8-8-8--10-10-10-10-10-10-10--|
A|---------------------------------------------------------------------------------------|
E|---------------------------------------------------------------------------------------| 

G|-------------------------------------- [x2]
D|------------------------------------------|
A|------------------------------------------|
E|--10-10-10-10--5-5-5-5--6-6-6-6--8-8-8-8--|

G|--------------------------------- [x4]
D|-------------------------------------|
A|-------------------------------------|
E|--10--10-10--5--5-5--6--6-6--8--8-8--|


G|--------------------------------------------------------------------|
D|--------Triplet----------Triplet----------Triplet---------Triplet---|
A|--------------------------------------------------------------------|
E|--10-10-10-10-10---10-10-10-10-10---10-10-10-10-10--10-10-10-10-10--|

G|---------------------------------------------|
D|---------------------------------------------|
A|---------------------------------------------|
E|--10-10-10-10-10-10-10-10-10-10-10-10-10-10--|

G|-------------------------------------- [x4]
D|------------------------------------------|
A|------------------------------------------|
E|--10-10-10-10--5-5-5-5--6-6-6-6--8-8-8-8--|

G|------------------------------------------|
D|---------------------------Triplet--------|
A|------------------------------------------|
E|--10~---------------------10-10-10~-------|

G|------------------------------------------------------------------------------------>
D|------------------------------------------------------------------------------------>
A|------------------------------------------------------------------------------------>
E|--10-10-10-10-10-10-10-10-10-10-10-10-10-10-10-10--8-8-8-8-8-8-8-8-8-8-8-8-8-8-8-8-->

  --------------------------------------------------->
  --------------------------------------------------->
  --------------------------------------------------->
  --10-10-10-10-10-10-10-10-10-10-10-10-10-10-10-10-->

  ----------------------------------------------- [x5]
  ---------------------------------------------------|
  ---------------------------------------------------|
  --12-12-12-12-12-12-12-12-12-12-12-12-12-12-12-12--|

G|---------------------------------------------------|
D|---------------------------------------------------|
A|---------------------------------------------------|
E|--13-13-13-13-13-13-13-13-13-13-13-13-13-13-13-13--|

G|---------------------------------------------------|
D|---------------------------------------------------|
A|---------------------------------------------------|
E|--15-15-15-15-15-15-15-15-15-15-15-15-15-15-15-15--|

G|---------------|
D|---------------|
A|---------------|
E|--10-10-10-10--|
Добавлено: 18.06.2012
Другие материалы по этой песне:
  • Аккорды и текст

Страница создана 18.06.2012
http://primanota.ru/forward-russia/fifteen-part-2-chords.htm
Привет, Гость.
Предлагаем пройти революционный курс по гитаре.
Подарок от PrimaNota.Ru, забирай!