PrimaNota.ru - самый крупный в мире бесплатный архив песенных текстов, аккордов, табулатур и нот


Forward Russia - Fifteen - таба, видео

Регистрация Запомнить меня
Войти через:  Facebook Google Twitter Vk Yandex Mail.ru

Forward Russia - Fifteen - таба, видео

Печатать
Просмотров: 113
Artist:Forward, Russia!
Track: Fifteen pt. 2
Album: Give Me a Wall
Track #: 10

X-palm mute

intro.
e|--------------------------------|
B|--------------------------------|
G|--77-7-7----33-3-3----55-5-5----|
D|--77-7-7(x4)33-3-3(x2)55-5-5(x2)|(x4)
A|--55-5-5----11-1-1----33-3-3----|
E|--------------------------------|

Synth bit.
e|-----------------------|
B|-/15-17-18-17-18-15(x2)|
G|-----------------------|
D|-----------------------|
A|-----------------------|
E|-----------------------|

I find tremelo picking works best there.

Verse.
Just kind of mess around with picking this chord.
e|-5--|
B|-5--|
G|-7--|
D|-7--|
A|-5--|
E|----|
pm.X

Pre-Chrous.
e|------------------------|
B|------------------------|
G|------------------------|
D|------------------------|
A|-5(x5)-0(x5)-1(x5)-3(x5)|
E|------------------------|

e|-----------------|
B|-----------------|
G|-----------------|
D|-----------------|
A|-555000111333(x4)|
E|-----------------|

e|----------------------------------------------------------------------------|
B|----------------------------------------------------------------------------|
G|----------------------------------------------------------------------------|
D|----------------------------------------------------------------------------|
A|-5555-5-3333-3-8888-8-7777-5555-5-3333-3-8888-8-10101010-5555-5-3333-3-8888-|
E|----------------------------------------------------------------------------|
pm.XXXX X XXXX X XXXX X XXXX XXXX X XXXX X XXXX X XXXXXXXX XXXX X XXXX X XXXX

      --------------------------------------------|
      --------------------------------------------|
contd.--------------------------------------------|
      --------------------------------------------|
      -8-7777-5555-5-3333-3-1111-1-000-000-000-000|
      --------------------------------------------|
       X XXXX XXXX X XXXX X XXXX X XXX XXX XXX XXX

Chorus.
e|-----------------|
B|-----------------|
G|-777----33x3-55x5|
D|-777(x8)33x3-55x5|(x2)
A|-555----11x1-33x3|
E|-----------------|

Verse.
Again, just mess around with picking these.
e|-5--10|
B|-5--10|
G|-7--12|
D|-7--12|
A|-5--10|
E|------|

*Repeat pre-chorus.

Bridge.
e|----------------------------------------|
B|----------------------------------------|
G|----------------------------------------|
D|----------------------------------------|
A|-555-555-555-555-5(x12)-555000111333(x4)|
E|----------------------------------------|

Outro.
e|-------------------------------------------------------------------------------|
B|-------------------------------------------------------------------------------|
G|-------------------------------------------------------------------------------|
D|-------------------------------------------------------------------------------|(x4)
A|-5-00-5-00-5-00-5-00-5050(x2)-1-00-1-00-1-00-1-00-1010-3-00-3-00-3-00-3-00-3030|
E|-------------------------------------------------------------------------------|

Contd.
e|-----------------------------------------------------------------------------------------|
B|-----------------------------------------------------------------------------------------|
G|-3-----5---------------------------------------------------------------------------------|
D|-3(x16)5(x16)---5-----5-3-5-3------------------------------------------------------35----|
A|-1-----3-----057--05-7-------5-3(x2)1-00-1-00-1-00-1-00-1010-3-00-3-00-3-00-3-00-30--(x2)|
E|-----------------------------------------------------------------------------------------|

Contd.
e|---------------------------|
B|---------------------------|
G|-7-----9-----10-----12-----|
D|-7(x16)9(x16)10(x16)12(x16)|
A|-5-----7-----8------10-----|
E|---------------------------|

End.
e|-------|
B|-------|
G|-77-7-7|
D|-77-7-7|
A|-55-5-5|
E|-------|
Добавлено: 27.05.2012
Другие материалы по этой песне:
  • Аккорды и текст

Страница создана 27.05.2012
http://primanota.ru/forward-russia/fifteen-chords.htm
Привет, Гость.
Предлагаем пройти революционный курс по гитаре.
Подарок от PrimaNota.Ru, забирай!