PrimaNota.ru - самый крупный в мире бесплатный архив песенных текстов, аккордов, табулатур и нот


Forward Area - America - таба, видео

Регистрация Запомнить меня
Войти через:  Facebook Google Twitter Vk Yandex Mail.ru

Forward Area - America - таба, видео

Печатать
Просмотров: 94
                             Forward Area
                              "America"
                        Hate Punk in your Face

Forward Area is not popular, but they are signed to a record label. It's either Resistance
Records, or the NSM's label, or something like those. They used to have their own domain site,
now they don't. They don't make a SHITLOAD from CDs and other things, so they still have to
work and conserve money. Here's the link to one of their pages: 
http://nazipunk.8k.com/forwardarea.html

Get over the fact that they're national socialist. You can't deny a tab based on the band's
beliefs.

Here's a link to the song: http://www.youtube.com/watch?v=5Bx5aB-k-kE
It's the second song that plays.

UPDATE: 4/16/10: Fixed the problem in the Verse and added the ending chorus part
                                  
                                  KEY:

                 = - hold/let ring, . - Palm Mute


INTRO (PLAYED TWICE)
-----------     -----------|
-----------     -----------|
----------- (x4)-----------| (x4)
-------5---     -------3---|
-----5---5-     -----3---3-|
---3-------     ---1-------|
   . . . .         . . . .

INTRO PT.2
----------     -----------------|
----------     -----------------|
---------- (x3)-----------------|
---5-5===-     ---5--5--5-5-5-5-|
---5-5===-     ---5--5--5-5-5-5-|
---3-3===-     ---3--3--3-3-3-3-|

VERSE
-----------------------------------------------------------------------------|
-----------------------------------------------------------------------------|
----------------------------------------8-8-8--88-8888888--------------------|
---5-5-5--55-5555555-8-5-5--55-5555555--8-8-8--88-8888888--3-3-3--33-3333333-|
---5-5-5--55-5555555-8-5-5--55-5555555--6-6-6--66-6666666--3-3-3--33-3333333-|
---3-3-3--33-3333333-6-3-3--33-3333333---------------------1-1-1--11-1111111-|

CHORUS                  at end of chorus
--------------------|   -----------------
--------------------|   -----------------
--------------------|   -----------------
---5-555555--5-3-3--|   --5--5--5-5--55--
---5-555555--5-3-3--|   --5--5--5-5--55--
---3-333333--3-1-1--|   --3--3--3-3--33--
     ......

END
------------|
------------|
------------|
---5=======-|
---5=======-|
---3=======-|
Добавлено: 19.04.2012
Другие материалы по этой песне:
  • Аккорды и текст

Страница создана 19.04.2012
http://primanota.ru/forward-area/america-chords.htm
Привет, Гость.
Предлагаем пройти революционный курс по гитаре.
Подарок от PrimaNota.Ru, забирай!