PrimaNota.ru - самый крупный в мире бесплатный архив песенных текстов, аккордов, табулатур и нот


Fortunate Youth - Salvation - таба, видео

Регистрация Запомнить меня
Войти через:  Facebook Google Twitter Vk Yandex Mail.ru

Fortunate Youth - Salvation - таба, видео

Печатать
Просмотров: 51
-------------------------------------------------------------------------------
                             SALVATION - Fortunate Youth
-------------------------------------------------------------------------------
Tabbed by: wattmalter

Tuning: Standard

Play bar chords with the "reggae skank" style only chopping the first three strings.

Intro and also played throughout the song
e|----------2-------2--|
B|--------3---3-----3--|
G|------4-------4---4--|
D|----4-------------4--|x4
A|--2---------------2--|
E|---------------------|

Chords:
e|--7--x--7---9---x--9---|
B|--7--x--7---10--x--10--|
G|--7--x--7---11--x--11--|
D|--9-----9---11-----11--|
A|--9-----9---9------9---|
E|--7-----7--------------|

You can figure out the picking patterns for this part, think (reggae triplet) picking for some notes.
e|--14-(14)(14)(14)-----------------------------------------------|
B|------------------14-15-15--------------------------------------|
G|----------------------------------------------------------------|
D|---------------------------14-14-16--16-(16)(16)(16)--14-14-14--|
A|----------------------------------------------------------------|
E|----------------------------------------------------------------|

e|--14-(14)(14)(14)--------------------|
B|------------------14-15-15-----------|
G|---------------------------14-16-16--|
D|-------------------------------------|
A|-------------------------------------|
E|-------------------------------------|

Around 3:00 in the song.
e|--14-15-14-14-17-14-15-14-15-14-14-17--|
B|---------------------------------------|
G|---------------------------------------|
D|---------------------------------------|
A|---------------------------------------|
E|---------------------------------------| 

Enjoy and blaze one ;)

************************************

| /   slide up
| \   slide down
| h   hammer-on
| p   pull-off
| ~   vibrato
| +   harmonic
| x   Mute note
| b   Bend
| pb  Pre-bend
| br  Bend release
| pbr Pre-bend release
| brb Bend release bend

************************************
Добавлено: 09.07.2015
Вам также может быть интересно:
Другие материалы по этой песне:
  • Аккорды и текст

Страница создана 09.07.2015
http://primanota.ru/fortunate-youth/salvation-chords.htm
Привет, Гость.
Предлагаем пройти революционный курс по гитаре.
Подарок от PrimaNota.Ru, забирай!