PrimaNota.ru - самый крупный в мире бесплатный архив песенных текстов, аккордов, табулатур и нот


Fortunate Youth - Love Is The Most High - таба, видео

Регистрация Запомнить меня
Войти через:  Facebook Google Twitter Vk Yandex Mail.ru

Fortunate Youth - Love Is The Most High - таба, видео

Печатать
Просмотров: 119
Уроки эстрадного вокала в Санкт-Петербурге
-------------------------------------------------------------------------------
                    LOVE IS THE MOST HIGH - Fortunate Youth
-------------------------------------------------------------------------------
Tabbed by: wattmalter

Tuning: Standard

Intro: Add some triplets for the reggae feel | * = palm mute
e|----------------------------------------------------|
B|----------------------------------------------------|
G|--7-9-7---7-9---7-9-7-------------------------------|
D|--------9-------------9-7---7-9-7---7--5-7-5--------|
A|----------------------------------9----------7-6-5--|
E|----------------------------------------------------|
    * * * * * *   * * * * *   * * * * *  * * * * * *

e|----------------------------------------------------|
B|------------8---------------------------------------|
G|--7-9-7---7----7-9-7--------------------------------|
D|--------9-------------9-7---7-9-7---7--5-7-5--------|
A|----------------------------------9----------7-6-5--|
E|----------------------------------------------------|
    * * * * * *   * * * * *   * * * * *  * * * * * *

Chords:
e|--7-7--5-5--5-5-5-5--|
B|--8-8--7-7--5-5-5-5--|
G|--9-9--7-7--5-5-5-5--|
D|--9-9--7-7--7-7-7-7--|
A|--7-7--5-5--7-7-7-7--|
E|------------5-5-5-5--|


************************************

| *   palm mute
| /   slide up
| \   slide down
| h   hammer-on
| p   pull-off
| ~   vibrato
| +   harmonic
| x   Mute note
| b   Bend
| pb  Pre-bend
| br  Bend release
| pbr Pre-bend release
| brb Bend release bend

************************************
Добавлено: 30.11.2015
Вам также может быть интересно:
Другие материалы по этой песне:
  • Аккорды и текст

Страница создана 30.11.2015
http://primanota.ru/fortunate-youth/love-is-most-high-chords.htm
Привет, Гость.
Предлагаем пройти революционный курс по гитаре.
Подарок от PrimaNota.Ru, забирай!