PrimaNota.ru - самый крупный в мире бесплатный архив песенных текстов, аккордов, табулатур и нот


Fortunate Youth - Alibi - таба, видео

Регистрация Запомнить меня
Войти через:  Facebook Google Twitter Vk Yandex Mail.ru

Fortunate Youth - Alibi - таба, видео

Печатать
Просмотров: 76
-------------------------------------------------------------------------------
                             ALIBI - Fortunate Youth
-------------------------------------------------------------------------------
Tabbed by: wattmalter


Tuning: Standard

Intro:
e|-------------------------|
B|-------------------------|
G|------5------------------|
D|----6-------5------------|
A|--8-----3-6------6-4-3---|
E|--------------6~---------|

Chords:
e|--5--5--3--3--6--6--6--6--|
B|--6--6--4--4--6--6--6--6--|
G|--7--7--5--5--6--6--6--6--|
D|--7--7--5--5--8--8--8--8--|
A|--5--5--3--3--8--8--8--8--|
E|--------------6--6--6--6--|

Enjoy and get to skankin :)

************************************

| /   slide up
| \   slide down
| h   hammer-on
| p   pull-off
| ~   vibrato
| +   harmonic
| x   Mute note
| b   Bend
| pb  Pre-bend
| br  Bend release
| pbr Pre-bend release
| brb Bend release bend

************************************
Добавлено: 09.07.2015
Другие материалы по этой песне:
  • Аккорды и текст

Страница создана 09.07.2015
http://primanota.ru/fortunate-youth/alibi-chords.htm
Привет, Гость.
Предлагаем пройти революционный курс по гитаре.
Подарок от PrimaNota.Ru, забирай!