PrimaNota.ru - самый крупный в мире бесплатный архив песенных текстов, аккордов, табулатур и нот


Forsaken - The Second Manifest - таба, видео

Регистрация Запомнить меня
Войти через:  Facebook Google Twitter Vk Yandex Mail.ru

Forsaken - The Second Manifest - таба, видео

Печатать
Просмотров: 119
The Forsaken
“The Secont Manifest”
from album “Arts of desolation”

Beerslayer420

/ - Slide up to
\ - Slide down to 
h – Hammer on
p – Pull off
~ - Artificial harmonic

Tuning – 1:B 2:E 3:A 4:D 5:F# 6:B


Intro
Guit I
|---------------------7---6-------|---------------------7---6-12-11-|
|-5---4---7-5-8---7---------8-7---|-5---4---7-5-8---7---------------|
|---------------------------------|---------------------------------|
|---------------------------------|---------------------------------|
|---------------------------------|---------------------------------|
|---------------------------------|---------------------------------|
Guit II                                                             |
|---------5---7---6---12-11-8-7---|---------5---7---6---12-11-15-14-|
|-8---7-----8---------------------|-8---7-----8---------------------|
|---------------------------------|---------------------------------|
|---------------------------------|---------------------------------|
|---------------------------------|---------------------------------|
|---------------------------------|---------------------------------|

Riff 1

|------------------------|------------------------|
|------------------------|------------------------|
|------------------------|---------555555-4-------|
|---------------666---777|777-6-------------666---|
|---888888-7--------8----|----------------------8-|
|-0----------------------|------------------------|

|------------------------|------------------------|
|------------------------|------------------666-5-|
|------------------------|---------555555-4-------|
|---------------666---777|777-6-------------------|
|---888888-7--------8----|------------------------|
|-0----------------------|------------------------|

Last round
Guit I
|------------------------|-----------------------------------|
|------------------------|-----------------------------------|
|------------------------|-----------------------------------|
|---------------666---777|777-6---7-6--------7-6-------------|
|---888888-7--------8----|------------8-7---------8-7--7-----|
|-0----------------------|-------------------------------8-7-|
Guit II                                                      |
|------------------------|-----------------------------------|
|------------------------|-----------------------------------|
|------------------------|--------5-4--------5-4-------------|
|-2--------2--------2----|----2-------7-6---------7-6--6-----|
|-2--------2--------2----|----2--------------------------8-7-|
|-0-000000-0----000-0-000|000-0------------------------------|

Riff 2

|------------------------|------------------------|
|------------------------|------------------------|
|------------------------|------------------------|
|-2--------2--------3----|----2--------------5----|
|-2--------2--------3----|----2--------------3-6--|
|-0----000-0----000-1-000|000-0----000-0-000---4--|

Riff 1
Guit I
|------------------------|------------------------|
|------------------------|------------------------|
|------------------------|---------555555-4-------|
|---------------666---777|777-6-------------666---|
|---888888-7--------8----|----------------------8-|
|-0----------------------|------------------------|
Guit II                                           |
|------------------------|------------------------|
|------------------------|---------555555---------|
|---------------------555|555-4-----------7-------|
|---777777-6----999-7----|------------------444---|
|------------------------|----------------------6-|
|-0----------------------|------------------------|

Guit I
|------------------------|------------------------|
|------------------------|------------------666-5-|
|------------------------|---------555555-4-------|
|---------------666---777|777-6-------------------|
|---888888-7--------8----|------------------------|
|-0----------------------|------------------------|
Guit II                                           |
|------------------------|------------------555-4-|
|------------------------|---------555555-4-------|
|---------------------555|555-4-------------------|
|---777777-6----999-7----|------------------------|
|------------------------|------------------------|
|-0----------------------|------------------------|

Solo
|------------------------|------------------------|
|------------------------|------------------------|
|------------------------|------------------------|
|-2--------2--------3----|----2-----------2-------|
|-2--------2--------3----|----2-----------2-------|
|-0-000000-0----000-1-000|000-0----000000-0-000-1-|

Riff 3
Guit I
|-------------------------------|-------------------------------|
|-------------------------------|-------------------------------|
|-------------------------------|-------------------------------|
|-------------------------------|-------------------------------|
|-------------------------5-----|-------------------------4-----|
|-555-8-555-7-555-8-5-7-8---8-7-|-444-7-444-6-444-7-4-6-7---7-6-|
Guit II                                                         |
|-------------------------------|-------------------------------|
|-------------------------------|-------------------------------|
|-------------------------------|-------------------------------|
|-------------------------------|-------------------------------|
|-----7-----6-----7-------5-----|-----6-----5-----6-------4-----|
|-555---555---555---5-7-8---8-7-|-444---444---444---4-6-7---7-6-|

Riff 4
Am
|--------------------------|--------------------------|
|--------------------------|--------------------------|
|-9-------9-10-9-------9---|-9-------9-10-9-------9---|
|--10-7-10------10-7-10-10-|--10-7-10------10-7-10-10-|
|--------------------------|--------------------------|
|--------------------------|--------------------------|

Dbm
|-4-------4-5-4-------4---|-4-------4-5-4-----------|
|---5-2-5-------5-2-5---5-|---5-2-5-------5-4-2-----|
|-------------------------|-------------------------|
|-------------------------|-------------------------|
|-------------------------|-------------------------|
|-------------------------|-------------------------|

Fm
|-------------------------|-------------------------|
|-------------------------|-------------------------|
|-5-------5-6-5-------5---|-5-------5-6-5-------5---|
|---6-3-6-------6-3-6---6-|---6-3-6-------6-3-6---6-|
|-------------------------|-------------------------|
|-------------------------|-------------------------|

B
|-7-8-7-5-----------------|-------------------7-------|
|---------8-7-5-4---------|-------5-6-8-5-7-8---8-7-5-|
|-----------------5-4-8-6-|-5-6-8---------------------|
|-------------------------|---------------------------|
|-------------------------|---------------------------|
|-------------------------|---------------------------|

Outro
Guit I
|-------------------------|---------------------------|
|-------------------------|---------------------------|
|-------------------------|-4-------------------------|
|-------------------------|---7-5-4---------4-5-4-----|
|-------------------------|-------------6-7-------7-6-|
|-0-0-0-0-0-0-0-----------|---------------------------|
Guit II                                               |
|-------------------------|---------------------------|
|-------------------------|---------------------------|
|-------------------------|---------------------------|
|-------------------------|-5-4-----------------------|
|-------------------------|-----7-6---------6-7-6-----|
|-0-0-0-0-0-0-0-----------|-------------7-8-------8-7-|

Guit I
|-------------------------|---------------------------|
|-------------------------|---------------------------|
|-4-----------------------|---------------------------|
|---7-5-4-----------------|-2-------------------------|
|-------------7-6---------|-2-------------------------|
|-----------------8-7-----|-0-------------------------|
Guit II                                               |
|-------------------------|---------------------------|
|-------------------------|---------------------------|
|-------------------------|---------------------------|
|-5-4---------5-4---------|-2-------------------------|
|-----7-6---------7-6-----|-2-------------------------|
|-------------------------|-0-------------------------|
Добавлено: 13.05.2012
Другие материалы по этой песне:
  • Аккорды и текст

Страница создана 13.05.2012
http://primanota.ru/forsaken/the-second-manifest-chords.htm
Привет, Гость.
Предлагаем пройти революционный курс по гитаре.
Подарок от PrimaNota.Ru, забирай!