PrimaNota.ru - самый крупный в мире бесплатный архив песенных текстов, аккордов, табулатур и нот


Forsaken - Seers Hatred - текст песни, таба, видео

Регистрация Запомнить меня
Войти через:  Facebook Google Twitter Vk Yandex Mail.ru

Forsaken - Seers Hatred - текст песни, таба, видео

Печатать
Просмотров: 135
The Forsaken
“Seers Hatred”
from album “Manifest of Hate”


/ - Slide up to
\ - Slide down to 
h – Hammer on
p – Pull off
~ - Artificial harmonic
. – Palm mute
Tuning – 1:C 2:F 3:Bb 4:D# 5:G# 6:C


Intro
Guit I
|-------------------------|-------------------------|
|-------------------------|-------------------------|
|-------------------------|-------------------------|
|---------------5---------|-------------------------|
|-------------------5---4-|-------------------------|
|-333-333-333-3---3---3---|-333-333-333-3-6-3-5-3-2-|
Guit II                                             | x2
|-------------------------|-------------------------|
|-------------------------|-------------------------|
|-------------------------|-------------------------|
|-------------------------|-------------------------|
|-------------------------|-------------------------|
|-333-333-333-------------|-333-333-333-------------|

Guit I
|-------------------------|-------------------------|
|-------------------------|-------------------------|
|-------------------------|-------------------------|
|---5---------------------|---5---------------------|
|-------5---4-------------|-------5---4-------------|
|-3---3---3---3-6-3-5-3-2-|-3---3---3---6-666-5-3-2-|
Guit II                                             |
|-------------------------|-------------------------|
|-------------------------|-------------------------|
|-------------------------|-------------------------|
|-5-----------------------|-(5)---------------------|
|-5-----------------------|-(5)---------------------|
|-3-----------------------|-(3)---------------------|

Guit I
|-------------------------|-------------------------|
|-------------------------|-------------------------|
|-------------------------|-------------------------|
|---5---------------------|---5---------------------|
|-------5---4-------------|-------5---4-------------|
|-3---3---3---6-6-6-5-3-2-|-3---3---3---3-6-3-5-3-2-|
Guit II                                             |
|-------------------------|-------------------------|
|-------------------------|-------------------------|
|-------------------------|-------------------------|
|-(5)---------------------|-(5)---------------------|
|-(5)---------------------|-(5)---------------------|
|-(3)---------------------|-(3)---------------------|

Both
|-------------------------|
|-------------------------|
|-------------------------|
|-5-----------------------|
|-5-----------------------|
|-3-----------------------|




Riff 1
|-------------------------|-------------------------|
|-------------------------|-------------------------|
|-------------------------|-------------------------|
|---5---------------------|---5---------------------|
|-------5---4-------------|-------5---4-------------|
|-3---3---3---3-6-3-5-3-2-|-3---3---3---6-666-5-3-2-|

|-------------------------|-------------------------|
|-------------------------|-------------------------|
|-------------------------|-------------------------|
|---5---------------------|---5---------------------|
|-------5---4-------------|-------5---4-------------|
|-3---3---3---6-6-6-5-3-2-|-3---3---3---6-666-2-----|

Riff 1b (solo)
|-------------------------|-------------------------|
|-------------------------|-------------------------|
|-------------------------|-------------------------|
|---7---------------------|---7---------------------|
|-------7---6-------------|-------7---6-------------|
|-5---5---5---5-8-5-7-5-4-|-5---5---5---8-888-7-5-4-|

|-------------------------|-------------------------|
|-------------------------|-------------------------|
|-------------------------|-------------------------|
|---7---------------------|-------------------------|
|-------7---6-------------|---5---8---5-------------|
|-5---5---5---8-8-8-7-5-4-|-7---7---7---4-----7-----|

Riff 2
|-------------------------|-------------------------|
|-------------------------|-------------------------|
|-------------------------|-------------------------|
|-------------------------|-------------------------|
|-------777777------7788--|-------7777778888--------|
|-555555------555555----66|-555555----------99996666|

|-------------------------|-------------------------|
|-------------------------|-------------------------|
|-------------------------|-------------------------|
|-------------------------|-------------------------|
|-------777777------7788--|-------777777-3----6-----|
|-555555------555555----66|-555555-------1----4-----|

Riff 3
Guit I
|-------------------------|-------------------------|
|-------------------------|-------------------------|
|-------------------------|-------------------------|
|-------------------------|-------------555555444444|
|-----------55666666------|-------5555--------------|
|-3333333333--------444444|-333333----66------------|
Guit II                                             |
|-------------------------|-------------------------|
|-------------------------|-------------------------|
|-------------------------|-------------------------|
|-------------------------|-------5555--888888777777|
|-----------55666666------|-----------55------------|
|-3333333333--------444444|-333333------------------|

Guit I
|-------------------------|-------------------------|
|-------------------------|-------------------------|
|-------------------------|-------------------------|
|-------------------------|-------------------------|
|-----------55666666------|-------5555--4-444-3-----|
|-3333333333--------444444|-333333----66------------|
Guit II                                             |
|-------------------------|-------------------------|
|-------------------------|-------------------------|
|-------------------------|-------------------------|
|-------------------------|-------------------------|
|-----------55666666------|-------------------------|
|-3333333333--------444444|-3333336666335-555-4-----|

Riff 4
|---------------------------|-------------------------|
|---------------------------|-------------------------|
|---------------------------|-------------------------|
|--------------------7------|-------------------------|
|-7----10-9---7-10-9---10-9-|-666666666666777777999999|
|---0-0-----8---------------|-------------------------|

|---------------------------|-------------------------|
|---------------------------|-------------------------|
|---------------------------|-------------6-5---------|
|--------------------7------|-------5---------6-5-----|
|-7----10-9---7-10-9---10-9-|-3-333-3-------------6-2-|
|---0-0-----8---------------|-------------------------|

|---------------------------|-------------------------|
|---------------------------|-------------------------|
|---------------------------|-------------------------|
|--------------------7------|-------------------------|
|-7----10-9---7-10-9---10-9-|-666666666666777777999999|
|---0-0-----8---------------|-------------------------|

Guit I
|-------------------------|-------------------------|
|-------------------------|-------------------------|
|-------------------------|-------------------------|
|-5-----------7-----------|---5555555555-5-4---4----|
|---7777777777--9999999999|-7----------------7------|
|-------------------------|-------------------------|
Guit II                                             |
|-------------------------|-------------------------|
|-------------------------|-------------------------|
|-------------------------|-------------------------|
|-------------------------|-------------------------|
|-333333333333555555555555|-------------------------|
|-------------------------|555555555555777777777777-|

Riff 1

Last round
|-------------------------|-------------------------|
|-------------------------|-------------------------|
|-------------------------|-------------------------|
|---5---------------------|---------------2-------2-|
|-------5---4-------------|---3---7---3-------2-----|
|-3---3---3---6-6-6-5-3-2-|-5---5---3---0---0---0---|


Riff 5
|-------------------------|-------------------------|
|-------------------------|-------------------------|
|-------------------------|-------------------------|
|---7---------------------|-------------------------|
|-------7---6-------------|---5--10---5-------------|
|-5---5---5---5-8-5-7-5-4-|-7---7---7---4-----7-----|

Guit I
|-------------------------|-------------------------|
|-------------------------|---6---------------------|
|-------------------------|-7---7-4-7-4---4---------|
|-------------2-----3-----|-------------6---6-------|
|-5-----5-222---333---555-|-------------------7-----|
|---777-------------------|-------------------------|
Guit II                                             |
|-------------------------|---4---------------------|
|-------------------------|-6---6-3-6-3---3---------|
|-------------------------|-------------4---4-------|
|-------------2-----3-----|-------------------6-----|
|-5-----5-222---333---555-|-------------------------|
|---777-------------------|-------------------------|

Riff 2

Riff 3

Last round
Guit I
|-------------------------|-------------------------|
|-------------------------|-------------------------|
|-------------------------|-------------------------|
|-------------------------|-------------------------|
|-----------55666666------|-------5555--4-444-3-333-|
|-3333333333--------444444|-333333----66------------|
Guit II                                             |
|-------------------------|-------------------------|
|-------------------------|-------------------------|
|-------------------------|-------------------------|
|-------------------------|-------------------------|
|-----------55666666------|-------------------------|
|-3333333333--------444444|-3333336666335-555-4-444-|

Riff 6
|-------------------------|-------------------------|
|-------------------------|-------------------------|
|-------------------------|-------------------------|
|-------------------------|-------------------------|
|---------------5-6-3-5---|---------------5-6-3-5---|
|-333-666-555-3---------6-|-333-666-555-3---------6-|

Guit I
|-------------------------|-------------------------|
|-------------------------|-------------------------|
|-------------------------|-------------------------|
|-2-----2-----1-----1-----|---------7777------------|
|-2-----2-----2-----2-----|-55558888------------8888|
|---0-0---------0-0-------|-------------66669999----|
Guit II                                             |
|-------------------------|-------------------------|
|-------------------------|-------------------------|
|-------------------------|---------7777------------|
|-2-----2-----1-----1-----|-----7777------------8888|
|-2-----2-----2-----2-----|-5555------------8888----|
|---0-0---------0-0-------|-------------6666--------|

Ending
Guit I
|-------------------------|
|-------------------------|
|---------7777------------|
|-----7777-----4----------|
|-5555---------2--5---4---|
|-----------------3---2---|
Guit II                   |
|-------------------------|
|-------------------------|
|-------------------------|
|--------------4----------|
|--------------2--5---4---|
|-----------------3---2---|


Solo 1
|-------------------------|-------------------------|
|-------------------------|-------------------------|
|-------------------------|-------------------------|
|-------------------------|-------------------------|
|-----7-------7---10--9---|-9-----------10----9-----|
|-0-0---0-7-0---0---0---0-|-7-----7-7-7---7-7---7-7-|

|-------------------------|-------------------------|
|-------------------------|-------------------------|
|-------------------------|-------------4444--------|
|-----55554444----7777----|-----44445555----55554444|
|---------------------7777|-------------------------|
|-8888--------5555--------|-7777--------------------|

|-------------------------|-------------------------|
|-------------------------|-------------------------|
|-------------------------|-------------------------|
|-------------------------|-------------------------|
|-----7-------7---10--9---|-9-----------10----9-----|
|-0-0---0-7-0---0---0---0-|-7-----7-7-7---7-7---7-7-|

|-------------------------|-------------------------|
|-------------------------|-------------------------|
|-------------------------|-------------4444--------|
|-----7777--------55554444|-----44445555----55554444|
|---------7777------------|-------------------------|
|-5555--------8888--------|-7777--------------------|

Solo 2
|-------------------------|-------------------------|
|-------------------------|-------------------------|
|-------------------------|-------------------------|
|-------------------------|-------------------------|
|---------------5-6-3-5---|---------------5-6-3-5---|
|-333-666-555-3---------6-|-333-666-555-3---------6-|

|-------------------------|-------------------------|
|-------------------------|-------------------------|
|-------------------------|-------------------------|
|-9-----9-----9-----9-----|-7-----7-----------------|
|-7-7-7-7-----6-6-6-6-----|-5-5-5-5-----8-----8-----|
|-------------------------|-------------6-6-6-6-----|

|-------------------------|-------------------------|
|-------------------------|-------------------------|
|-------------------------|-------------------------|
|-------------------------|-------------------------|
|---------------5-6-3-5---|---------------5-6-3-5---|
|-333-666-555-3---------6-|-333-666-555-3---------6-|

|-------------------------|-------------------------|
|-------------------------|-------------------------|
|-------------------------|-------------------------|
|-9-----9-----9-----9-----|-7-----7-----------------|
|-7-7-7-7-----6-6-6-6-----|-5-5-5-5-----9-----9-----|
|-------------------------|-------------7-7-7-7-----|

Riff 7
|-------------------------|-------------------------|
|-------------------------|-------------------------|
|-------------------------|-------------------------|
|-------------------------|-----585-474-------------|
|-------------------------|-585---------474-363-252-|
|-000-000-000-000-000-000-|-------------------------|

|-------------------------|-------------------------|
|-------------------------|-------------------------|
|-------------------------|----------------252-474--|
|-------------------------|-----585-474-585---------|
|-------------------------|-585---------------------|
|-000-000-000-000-000-000-|-------------------------|

Ending
Guit I
|----------------------------------------|
|----------------------------------------|
|-7h10p7h10p7h10-------------------------|
|---------------6h9p6h9p6h9------------3-|
|--------------------------5h8p5h8p5h8-3-|
|--------------------------------------1-|
Guit II
|-------------------------------------------------|
|-------------------------------------------------|
|-10h13p10h13p10h13-------------------------------|
|------------------9h12p9h12p9h12---------------3-|
|--------------------------------8h11p8h11p8h11-3-|
|-----------------------------------------------1-|

Riff 2

Riff 3

Riff 4

Ending
Guit I
|-------------------------|-------------------------|
|-------------------------|-------------------------|
|-------------------------|-9-7---------------------|
|-------------------------|----10-9-7---------------|
|-333333333333555555555555|----------10-9-7-6-------|
|-------------------------|-------------------7-----|
Guit II                                             |
|-------------------------|-------------------------|
|-------------------------|-------------------------|
|-------------------------|-------------------------|
|-5------------7----------|10-9-7-------------------|
|---7777777777---99999999-|------10-9-7-6-----6-----|
|-------------------------|---------------8-7-------|


Riff 1

Last round
|-------------------------|-------------------------|
|-------------------------|-------------------------|
|-------------------------|-------------------------|
|---5---------------------|---------------2-------2-|
|-------5---4-------------|---3---7---3-------2-----|
|-3---3---3---6-6-6-5-3-2-|-5---5---3---0---0---0---|


Riff 5
|-------------------------|-------------------------|
|-------------------------|-------------------------|
|-------------------------|-------------------------|
|---7---------------------|-------------------------|
|-------7---6-------------|---5--10---5-------------|
|-5---5---5---5-8-5-7-5-4-|-7---7---7---4-----7-----|

Guit I
|-------------------------|-------------------------|
|-------------------------|---6---------------------|
|-------------------------|-7---7-4-7-4---4---------|
|-------------2-----3-----|-------------6---6-3-6-3-|
|-5-----5-222---333---555-|-------------------------|
|---777-------------------|-------------------------|
Guit II                                             |
|-------------------------|---4---------------------|
|-------------------------|-6---6-3-6-3---3---------|
|-------------------------|-------------4---4---4---|
|-------------2-----3-----|-------------------6---6-|
|-5-----5-222---333---555-|-------------------------|
|---777-------------------|-------------------------|

Guit I
|-------------------------|
|-------------------------|
|-------------------------|
|---3---------------------|
|-5---5-2-5-2---2---------|
|-------------4---4-1-4-1-|
Guit II                   |
|-------------------------|
|-------------------------|
|-------------------------|
|-3-6-3---3---------------|
|-------5---5-2-5-2---2---|
|-------------------4---4-|

Finish
Guit I
|-------------------------|-----------------------------||
|-------------------------|-----------------------------||
|-------------------------|-----------------------------||
|---7---------------------|---------------------------7-||
|-------7---6-------------|---5---8---5---333-222-----7-||
|-5---5---5---5-8-5-7-5-4-|-7---7---7---4------—--444-5-||
Guit II                                                 ||  
|-------------------------|-----------------------------||
|-------------------------|-----------------------------||
|-------------------------|-----------------------------||
|-7-----------------------|-(7)-----------------------7-||
|-7-----------------------|-(7)-----------333-222-----7-||
|-5-----------------------|-(5)-------------------444-5-||
Добавлено: 02.03.2012
Другие материалы по этой песне:
  • Аккорды и текст

Страница создана 02.03.2012
http://primanota.ru/forsaken/seers-hatred-chords.htm
Привет, Гость.
Предлагаем пройти революционный курс по гитаре.
Подарок от PrimaNota.Ru, забирай!