PrimaNota.ru - самый крупный в мире бесплатный архив песенных текстов, аккордов, табулатур и нот


Forsaken - Scars - таба, видео

Регистрация Запомнить меня
Войти через:  Facebook Google Twitter Vk Yandex Mail.ru

Forsaken - Scars - таба, видео

Печатать
Просмотров: 110
The Forsaken
“Scars”
from album “Arts of desolation”

Beerslayer420

/ - Slide up to
\ - Slide down to 
h – Hammer on
p – Pull off
~ - Artificial harmonic

Tuning – 1:B 2:E 3:A 4:D 5:F# 6:B

Riff 1
|---------------------------------|-------------------------------|
|---------------------------------|-------------------------------|
|---------------------------------|-------------------------------|
|-9\------------8----10-----7-----|-9\----------------------------|
|-7\------------6-----8-----5-----|-7\----------------------------|
|-7\0-000-0-000-6-000-8-000-5-000-|-7\0-000-0-000-320-530-650-530-|

|---------------------------------|-------------------------------|
|---------------------------------|-------------------------------|
|---------------------------------|-------------------------------|
|-9\------------8----10-----7-----|-9\----------------------------|
|-7\------------6-----8-----5-----|-7\----------------------------|
|-7\0-000-0-000-6-000-8-000-5-000-|-7\0-000-0-000-320-0-320-0-320-|


Riff 2
|---------------------------|----------------------------|
|---------------------------|----------------------------|
|-9------10---7----10---7/10|-9-------------10---9----12-|
|-7------8----5----8----5/8-|-7-------------8----7----10-|
|--000000-0000-0000-0000----|--0000000000000-0000-0000---|
|---------------------------|----------------------------|

Riff 1

Riff 3

|------------------------------|-------------------------------|
|------------------------------|-------------------------------|
|------------------------------|-------------------------------|
|------------------------------|-------------------------------|
|------------------------------|-7-5-7-------8-7-8-------5-4-5-|
|-3333333333335555555566666666-|-------0-000-------0-000-------|

|------------------------------|-------------------------------|
|------------------------------|-------------------------------|
|------------------------------|-------------------------------|
|------------------------------|-------------------------8-7---|
|------------------------------|-7-5-7-------8-7-8-----------8-|
|-3333333333335555555566666666-|-------0-000-------0-000-------|

Riff 1

Riff 2b

Last round

|---------------------------|---------------------------------|
|---------------------------|---------------------------------|
|-9------10---7----10---7/10|---------------------------------|
|-7------8----5----8----5/8-|-7-------------------------------|
|--000000-0000-0000-0000----|---0-0-8-0-0-7-0-0-5-0-0-3-6-5---|
|---------------------------|-------------------------------3-|

Riff 4
|-----------------------------------|-------------------------------|
|-----------------------------------|-------------------------------|
|-------------------------4p3p0-----|-------------------------------|
|-5-----6-----5-----6----------6p5p3|-5-----6-----5-----6-----------|
|-----------------------------------|-------------------------3---6-|
|---3-3---3-3---3-3---3-3-----------|---3-3---3-3---3-3---3-3-1---4-|

|-----------------------------------|------------------------------------|
|-----------------------------------|------------------------------------|
|-------------------------4p3p0-----|------------------------------------|
|-5-----6-----5-----6----------6p5p3|-555555666666555555-----------------|
|-----------------------------------|-------------------6666665555-------|
|---3-3---3-3---3-3---3-3-----------|-----------------------------4444---|

Guit I
|-----------------------------------|-------------------------------|
|-----------------------------------|-------------------------------|
|-------------------------4p3p0-----|-------------------------------|
|-5-----6-----5-----6----------6p5p3|-5-----6-----5-----6-----------|
|-----------------------------------|-------------------------3---6-|
|---3-3---3-3---3-3---3-3-----------|---3-3---3-3---3-3---3-3-1---4-|
Guit II                                                             |
|-----------------------------------|-------------------------------|
|-------------------------3p2p0-----|-------------------------------|
|-4-----5-----4-----5----------5p4p1|-4-----5-----4-----5-----------|
|---5-5---5-5---5-5---5-5-----------|---5-5---5-5---5-5---5-5-------|
|-----------------------------------|-------------------------3---6-|
|-----------------------------------|-------------------------1---4-|

Guit I
|-----------------------------------|------------------------------------|
|-----------------------------------|------------------------------------|
|-------------------------4p3p0-----|------------------------------------|
|-5-----6-----5-----6----------6p5p3|-555555666666555555-----------------|
|-----------------------------------|-------------------6666665555-------|
|---3-3---3-3---3-3---3-3-----------|-----------------------------4444---|
Guit II                                                                  |
|-----------------------------------|------------------------------------|
|-------------------------3p2p0-----|------------------------------------|
|-4-----5-----4-----5----------5p4p0|-444444555555444444-----------------|
|---5-5---5-5---5-5---5-5-----------|-------------------6666665555-------|
|-----------------------------------|-----------------------------3333---|
|-----------------------------------|------------------------------------|

Riff 1

Riff 2

Riff 3 

Break
|---------------------------------|------------------------------------|
|---------------------------------|------------------------------------|
|---------------------------------|------------------------------------|
|-------------5-------------------|-------------------2----------------|
|-7-5-7-8-7-8---8-7-5-4-----------|-------------------2--------------3-|
|-----------------------6-5-3-5-6-|------6-6------6-6-0--------------1-|

Solo 1a
|---------------------------------|---------------------------------|
|---------------------------------|---------------------------------|
|---------------------------------|---------------------------------|
|---------------------------------|---------------------------------|
|-2---------3-----2---------3-----|-2---------3-----2-----5-----3---|
|-----0-0-0---0-0-----0-0-0---0-0-|-----0-0-0---0-0---0-0---0-0---0-|

Solo 1b
|---------------------------------|---------------------------------|
|---------------------------------|---------------------------------|
|---------------------------------|---------------------------------|
|---------------------------------|---------------------------------|
|-7-----7-----7---8-----8-----8---|-8-----8-----8---7-----7-----7---|
|---5-5---5-5---5---5-5---5-5---5-|---4-4---4-4---4---4-4---4-4---4-|

Solo 1a 

Solo 1b

Riff 5
|----------------------------------------|
|----------------------------------------|
|----------------------------------------|
|----------------------------------------|
|-------------------------------------7\-|
|-3-2-0-0-0-0-5-3-0-0-0-0-3-2-0-0-0-0-7\-|

|-------------------------------------------------|
|-------------------------------------------------|
|-------------------------------------------------|
|-------------------------------------------------|
|-2-----3/----------------------------8-8-8-------|
|-0-----3/----0-0-0-0-0-0-5-5-5-6-6-6-------6-6-6-|

|----------------------------------------|
|----------------------------------------|
|----------------------------------------|
|----------------------------------------|
|-------------------------------------7\-|
|-3-2-0-0-0-0-5-3-0-0-0-0-3-2-0-0-0-0-7\-|

|------------------------------------------------|
|------------------------------------5h8p5-------|
|------------------------------------------------|
|-2h5p2-1h4p1-2h5p2------------2h5p2-------2h5p2-|
|------------------------------------------------|
|-------------------0-0-0-0----------------------|

Solo 2
|-------------------------------------------------------|
|-------------------------------------------------------|
|-------------------------------------------------------|
|-9-----------------8-----------------7-----------------|
|-7-----7-7-7-7-7-7-7-----7-7-7-7-7-7-7-----7-7-7-7-7-7-|
|-------------------------------------------------------|

|-------------------------------------------------------|
|-------------------------------------------------------|
|-------------------------------------------------------|
|-5-----------------5-----------------------4-----------|
|-7-----7-7-7-7-7-7-3-----3-3-3-3-3-3-3-----3-3-3-3-3-3-|
|-------------------------------------------------------|

|-------------------------------------------------|
|-------------------------------------------------|
|-------------------------------------------------|
|-------------------------4-4-4-4-4-4-7-7-7-7-7-7-|
|-3-3-3-3-3-3-6-6-6-6-6-6-------------------------|
|-------------------------------------------------|

|-------------------------------------------------|
|-------------------------------------------------|
|-------------------------------------------------|
|-------------------------------------------------|
|---------------------------3-3-3-3-3-3-6-6-6-6-6-|
|-2-2-2-2-2-2-5-5-5-5-5-5-5-----------------------|

|-------------------------------------|
|-------------------------------------|
|-------------------------------------|
|-------------------------------------|
|-2-----------------2-----------------|
|-0-----0-0-0-0-0-0-0-----0-0-0-0-0-0-|

|-------------------------------------|
|-------------------------------------|
|-------------------------------------|
|-------------------------------------|
|-2-----------------2-----------------|
|-0-----0-0-0-0-0-0-0-----0-0-0-0-0-0-|

|-------------------------------------|
|-------------------------------------|
|-------------------------------------|
|-6-----------------6-----------------|
|-4-----4-4-4-4-4-4-4-----4-4-4-4-4-4-|
|-------------------------------------|

|-------------------------------------|
|-------------------------------------|
|-------------------------------------|
|-6-----------------6-----------------|
|-4-----4-4-4-4-4-4-4-----4-4-4-4-4-4-|
|-------------------------------------|

Riff 5

Riff 1

Ending
Guit I
|------------------|
|------------------|
|---------------7^-|
|-6h7p6------------|
|-------8-7-5-8----|
|------------------|
Guit II            |
|------------------|
|------------------|
|-4h5p4---------6^-|
|-------7-6-3-7----|
|------------------|
|------------------|

Riff 2b

Riff 4

Riff 6
|-----------------------------------|---------------------------------|
|-----------------------------------|---------------------------------|
|-------------------------6h7p6-----|---------------------------------|
|-7-----8-----7-----8-----------8-5-|-7-----8-----7-----8-------------|
|-----------------------------------|-------------------------5---8---|
|---5-5---5-5---5-5---5-5-----------|---5-5---5-5---5-5---5-5-3---6---|

|-----------------------------------|---------------------------------|
|-----------------------------------|---------------------------------|
|-------------------------6h7p6-----|---------------------------------|
|-7-----8-----7-----8-----------8-5-|-7-----8-----7-----8-------------|
|-----------------------------------|---------------------------------|
|---5-5---5-5---5-5---5-5-----------|---5-5---5-5---5-5---5-5-33336666|

Riff 3

Last round
Guit I
|------------------------------|-------------------------------|
|------------------------------|-------------------------------|
|------------------------------|-------------------------------|
|------------------------------|-------------------------------|
|------------------------------|-7-5-7-------8-7-8-------7-5-7-|
|-3333333333335555555566666666-|-------0-000-------0-000-------|
Guit II                                                        |
|------------------------------|-------------------------------|
|------------------------------|-------------------------------|
|------------------------------|-------------------------------|
|------------------------------|-----------------------------6-|
|------------------------------|-7-5-7-------8-7-8-------7-5---|
|-3333333333335555555566666666-|-------0-000-------0-000-------|

|-------|
|-------|
|-------|
|-2-2-2-|
|-2-2-2-|
|-0-0-0-|
Добавлено: 01.03.2012
Другие материалы по этой песне:
  • Аккорды и текст

Страница создана 01.03.2012
http://primanota.ru/forsaken/scars-chords.htm
Привет, Гость.
Предлагаем пройти революционный курс по гитаре.
Подарок от PrimaNota.Ru, забирай!