PrimaNota.ru - самый крупный в мире бесплатный архив песенных текстов, аккордов, табулатур и нот


Forsaken - Mental Degeneration - таба, видео

Регистрация Запомнить меня
Войти через:  Facebook Google Twitter Vk Yandex Mail.ru

Forsaken - Mental Degeneration - таба, видео

Печатать
Просмотров: 87
The Forsaken
“Mental Degeneration”
from album “Arts of desolation”

Beerslayer420

/ - Slide up to
\ - Slide down to 
h – Hammer on
p – Pull off
~ - Artificial harmonic

Tuning – 1:B 2:E 3:A 4:D 5:F# 6:B


Intro
||-------------------------------------------|
||-------------------------------------------|
||-----0h7h10--------------------------------|
||-2---------0h6h9-------0h6h9-------------2-|
||-2---------------0h5h8-------0h5h8-------2-|
||-0---------------------------------0h4h7-0-|

|-------------------------------------------|
|-------------------------------------------|
|-----0h7h10--------------------------------|
|-2---------0h6h9-------0h6h9-------------2-|
|-2---------------0h5h8-------0h5h8-------2-|
|-0---------------------------------0h4h7-0-|

|-------------------------------------------|
|-------------------------------------------|
|-0h7h10------------------------------------|
|-------0h6h9-------0h6h9-------------2---2-|
|-------------0h5h8-------0h5h8-------2---2-|
|-------------------------------0h4h7-0---0-|

|----------------------------------------|
|----------------------------------------|
|-0h7h10---------------------------------|
|-------0h6h9-------0h6h9-------------2--|
|-------------0h5h8-------0h5h8-------2--|
|-------------------------------0h4h7-0--|

Riff 1
|-------------------------------------|
|-------------------------------------|
|-------------------------------------|
|-------------------------------0h6h9-|
|-------------------------0h5h8-------|
|-555-888-777-444-555-888-------------|

|-------------------------------------------|
|-------------------------------------------|
|-------------------------------------------|
|-----------------------0h6h9---------------|
|-----------------0h5h8-------0h5h8-0h4h7---|
|-555-888-777-444---------------------------|

|-------------------------------------|
|-------------------------------------|
|-------------------------------------|
|-------------------------------0h6h9-|
|-------------------------0h5h8-------|
|-555-888-777-444-555-888-------------|

|--------------------------------------------------|
|--------------------------------------------------|
|--------------------------------------------------|
|-------0h6h9--------------------------------------|
|-0h5h8-------0h5h8-0h4h7--------------------------|
|-------------------------0h5h8-0h7h10-0h5h8-0h4h7-|

Riff 2 (tremolo pick)
|---------------------------------|---------------------------------|
|---------------------------------|---------------------------------|
|---------------------------------|---------------------------------|
|---7-6---------------------------|---7-6---------------------------|
|-------8-7-----6-----8-----6-----|-------7-----6-------6---7-------|
|-5---------5-8-----5-----5---7-4-|-5-------8-----4---7-------8-4-5-|

Riff 3
|----------------------------------------------|
|----------------------------------------------|
|----------------------------------------------|
|----------------------------------------------|
|-7h10p7-----6h9p6-----7h10p7-----8h11p8-4h7p7-|
|--------0-0-------0-0--------0-0--------------|

Guit I
|--------------------------------------|
|--------------------------------------|
|--------------------------------------|
|------------------------------------7-|
|-7h10p7-----6h9p6-----------6-9-6-9---|
|--------0-0-------0-0-8-5-8-----------|
Guit II                                | 
|--------------------------------------|
|--------------------------------------|
|------------------------------------5-|
|----------------------------4-7-4-7---|
|-7h10p7-----6h9p6-----6-3-6-----------|
|--------0-0-------0-0-----------------|

|----------------------------------------------|
|----------------------------------------------|
|----------------------------------------------|
|----------------------------------------------|
|-7h10p7-----6h9p6-----7h10p7-----8h11p8-4h7p7-|
|--------0-0-------0-0--------0-0--------------|

|----------------------------------|
|----------------------------------|
|----------------------------------|
|-----33332222---------------------|
|-------------44443333-------------|
|-1111----------------111144442222-|

Riff 4
Guit I
|------------------------------------------------------------------|
|------------------------------------------------------------------|
|------------------------------------------------------------------|
|-----55554444-----------------------------------------------------|
|-------------66665555--------44444444----66666666----4444---------|
|-3333----------------3---6-----------3-----------3333----55552222-|
Guit II                                                            |
|------------------------------------------------------------------|
|------------------------------------------------------------------|
|------------------------------------------------------------------|
|-----8888777755554444--------------------44444444-----------------|
|---------------------------------------------------------4444-----|
|-3333----------------6---4---666666663-----------66665555----5555-|

Guit I
|-------------------------------------------------------------|
|-------------------------------------------------------------|
|-------------------------------------------------------------|
|-----55554444------------------------------------------------|
|-------------66665555--------44444444----66666666-6--4--3--2-|
|-3333----------------3---6-----------3------------3--6--5--4-|
Guit II                                                       |
|-------------------------------------------------------------|
|-------------------------------------------------------------|
|-------------------------------------------------------------|
|-----8888777755554444--------------------44444444------------|
|--------------------------------------------------6--4--3--2-|
|-3333----------------6---4---666666663------------3--6--5--4-|

Riff 1

Riff 2

Riff 3

Riff 5a
|----------------------------------------------|
|----------------------------------------------|
|----------------------------------------------|
|-----33332222----33334444----33332222---------|
|--------------------------------------3--6--7-|
|-1111--------1111--------1111---------1--4--5-|

|----------------------------------------------|
|----------------------------------------------|
|----------------------------------------------|
|-----33332222----33334444----33332222---------|
|--------------------------------------3--7--6-|
|-1111--------1111--------1111---------1--5--4-|

Riff 5 b
Guit I
|----------------------------------------------|
|----------------------------------------------|
|----------------------------------------------|
|-----33332222----33334444----33332222---------|
|--------------------------------------3--6--7-|
|-1111--------1111--------1111---------1--4--5-|
Guit II                                        |
|----------------------------------------------|
|----------------------------------------------|
|----------------------------------------------|
|----------------------------------------------|
|-----33332222----33334444----33332222-3--2--3-|
|-1111--------1111--------1111---------1--4--5-|

Guit I
|----------------------------------------------|
|----------------------------------------------|
|----------------------------------------------|
|-----33332222----33334444----33332222---------|
|--------------------------------------3--7--6-|
|-1111--------1111--------1111---------1--5--4-|
Guit II                                        |
|----------------------------------------------|
|----------------------------------------------|
|----------------------------------------------|
|----------------------------------------------|
|-----33332222----33334444----33332222-3--3--2-|
|-1111--------1111--------1111---------1--5--4-|

Riff 6
|-------------------------------|-------------------------------|
|-------------------------------|-------------------------------|
|-------------------------------|-------------------------------|
|-------------------------------|-------------------------------|
|-------7-6-7---8-----7-----6-7-|-------7-6-7---8-----7-----6-7-|
|-5-555-------5---5-5---5-5-----|-5-555-------5---5-5---5-5-----|

|-----------------------------|-----------------------------|
|-----------------------------|-----------------------------|
|-----------------------------|-----------------------------|
|-----------------------------|-----------------------------|
|-------4-1-3---------4-3-1-3-|-------4-1-3---------4-3-1-3-|
|-1-111-------4-1-111---------|-1-111-------4-1-111---------|

Guit I
|-------------------------------|-------------------------------|
|-------------------------------|-------------------------------|
|-------------------------------|-------------------------------|
|-------------------------------|-------------------------------|
|-------7-6-7---8-----7-----6-7-|-------7-6-7---8-----7-----6-7-|
|-5-555-------5---5-5---5-5-----|-5-555-------5---5-5---5-5-----|
Guit II                                                         |
|-------------------------------|-------------------------------|
|-------------------------------|-------------------------------|
|-------------------------------|-------------------------------|
|-------------------------------|-------------------------------|
|-------3-2-3---5-----3-----2-3-|-------3-2-3---5-----3-----2-3-|
|-5-555-------5---5-5---5-5-----|-5-555-------5---5-5---5-5-----|

Both
|-----------------------------|-----------------------------|
|-----------------------------|-----------------------------|
|-----------------------------|-----------------------------|
|-----------------------------|-----------------------------|
|-------4-1-3---------4-3-1-3-|-------4-1-3---------4-3-1-3-|
|-1-111-------4-1-111---------|-1-111-------4-1-111---------|


Guit I
|-------------------------------|-------------------------------|
|-------------------------------|-------------------------------|
|-------------------------------|-------------------------------|
|-------------------------------|-------------------------------|
|-------7-6-7---8-----7-----6-7-|-------7-6-7---8-----7-----6-7-|
|-5-555-------5---5-5---5-5-----|-5-555-------5---5-5---5-5-----|
Guit II                                                         |
|-------------------------------|-------------------------------|
|-10----------------------------|-5-----------------------------|
|-------------------------------|-------------------------------|
|-7-----------------------------|-2-----------------------------|
|-------------------------------|-------------------------------|
|-------------------------------|-------------------------------|

Guit I
|-----------------------------|-----------------------------|
|-----------------------------|-----------------------------|
|-----------------------------|-----------------------------|
|-----------------------------|-----------------------------|
|-------4-1-3---------4-3-1-3-|-------4-1-3---------4-3-1-3-|
|-1-111-------4-1-111---------|-1-111-------4-1-111---------|
Guit II                 
|-----------------------------|-----------------------------|
|-6---------------------------|-----------------------------|
|-----------------------------|-5---------------------------|
|-3---------------------------|-----------------------------|
|-----------------------------|-3---------------------------|
|-----------------------------|-----------------------------|

Guit I
|-------------------------------|-------------------------------|
|-------------------------------|-------------------------------|
|-------------------------------|-------------------------------|
|-------------------------------|-------------------------------|
|-------7-6-7---8-----7-----6-7-|-------7-6-7---8-----7-----6-7-|
|-5-555-------5---5-5---5-5-----|-5-555-------5---5-5---5-5-----|
Guit II                                                         |
|-------------------------------|-------------------------------|
|-10----------------------------|-13----------------------------|
|-------------------------------|-------------------------------|
|-7-----------------------------|-10----------------------------|
|-------------------------------|-------------------------------|
|-------------------------------|-------------------------------|

Guit I
|-----------------------------|-----------------------------|
|-----------------------------|-----------------------------|
|-----------------------------|-----------------------------|
|-----------------------------|-----------------------------|
|-------4-1-3---------4-3-1-3-|-------4-1-3---------4-3-1-3-|
|-1-111-------4-1-111---------|-1-111-------4-1-111---------|
Guit II                 
|-----------------------------|-----------------------------|
|-18--------------------------|-9---------------------------|
|-----------------------------|-----------------------------|
|-15--------------------------|-6---------------------------|
|-----------------------------|-----------------------------|
|-----------------------------|-----------------------------|

Solo
|----------------------------------|----------------------------------|
|----------------------------------|----------------------------------|
|----------------------------------|----------------------------------|
|----------------------------------|----------------------------------|
|-00000000-7-6-7-0-8-0-0-7-0-0-6-7-|-00000000-7-6-7-0-8-0-0-7-0-0-6-7-|
|----------------------------------|----------------------------------|

|---------------------------------|---------------------------------|
|---------------------------------|---------------------------------|
|---------------------------------|---------------------------------|
|---------------------------------|---------------------------------|
|---------4-1-3-----------4-3-1-3-|---------4-1-3-----------4-3-1-3-|
|-11111111------4-11111111--------|-11111111------4-11111111--------|

Riff 1

Break
|----------------------------------------------|
|----------------------------------------------|
|-0h7h10---------------------------------------|
|-------0h6h9-------0h6h9----------------------|
|-------------0h5h8-------0h5h8----------------|
|-------------------------------0h4h7-12\------|

Riff 2

Riff 3

Riff 4

Intro

Outro 

||---------------------------------------------------||
||---------------------------------------------------||
||o-0h7h10------------------------------------------o||
||o-------0h6h9-------0h6h9-------------------0h6h9-o||
||-------------0h5h8-------0h5h8-------0h5h8---------||
||-------------------------------0h4h7---------------||

Добавлено: 23.06.2012
Другие материалы по этой песне:
  • Аккорды и текст

Страница создана 23.06.2012
http://primanota.ru/forsaken/mental-degeneration-chords.htm
Привет, Гость.
Предлагаем пройти революционный курс по гитаре.
Подарок от PrimaNota.Ru, забирай!