PrimaNota.ru - самый крупный в мире бесплатный архив песенных текстов, аккордов, табулатур и нот


Forsaken - Injected Terror - таба, видео

Регистрация Запомнить меня
Войти через:  Facebook Google Twitter Vk Yandex Mail.ru

Forsaken - Injected Terror - таба, видео

Печатать
Просмотров: 134
Уроки эстрадного вокала в Санкт-Петербурге
The Forsaken
“Injected Terror”
from album “Arts of desolation”

Beerslayer420

/ - Slide up to
\ - Slide down to 
h – Hammer on
p – Pull off
~ - Artificial harmonic

Tuning – 1:B 2:E 3:A 4:D 5:F# 6:B

Riff 1
|--------------------------|--------------------------------------|
|--------------------------|--------------------------------------|
|--------------------------|--------------------------------------|
|--------------------------|--------------------------4h7p4h7p4h7-|
|-------222222------111111-|-------2222—--3h6p3h6p3h6-------------|
|-000000------3-2-0--------|-000000-----3-------------------------|

Guit I
|--------------------------|--------------------|
|--------------------------|--------------------|
|--------------------------|--------------------|
|-------5555---------444444|-------5555---------|
|------------6-5-3-2-------|------------6-5-3-2-|
|-333333-------------------|-333333-------------|
Guit II                                         |
|--------------------------|--------------------|
|--------------------------|--------------------|
|--------------------------|--------------------|
|-------8888-5-4-----777777|-------8888-5-4-----|
|----------------6-5-------|----------------6-5-|
|-333333-------------------|-333333-------------|

|--------------------------|--------------------------------------|
|--------------------------|--------------------------------------|
|--------------------------|--------------------------------------|
|--------------------------|--------------------------4h7p4h7p4h7-|
|-------222222------111111-|-------2222—--3h6p3h6p3h6-------------|
|-000000------3-2-0--------|-000000-----3-------------------------|

Guit I
|--------------------------|---------------------------|
|--------------------------|---------------------------|
|--------------------------|---------------------------|
|-------5555---------444444|-------5555---------444444-|
|------------6-5-3-2-------|------------6-5-3-2--------|
|-333333-------------------|-333333--------------------|
Guit II                                                |
|--------------------------|---------------------------|
|--------------------------|---------------------------|
|--------------------------|---------------------------|
|-------8888-5-4-----777777|-------8888-5-4-----777777-|
|----------------6-5-------|----------------6-5--------|
|-333333-------------------|-333333--------------------|

Break
Guit I
|-------------------------------------|-------|
|-------5-----------------------------|-------|
|---------3---------------------------|-------|
|-2-3-2-----2-2h5p2h5p2h5-1h4p1h4p1h4-|-------|
|-------------------------------------|-------|
|-------------------------------------|-6-5-3-|
Guit II                                       |
|-------------------------------------|-------|
|-------8-----------------------------|-------|
|---------6---------------------------|-------|
|-5-6-5-----5-5h8p5h8p5h8-4h7p4h7p4h7-|-------|
|-------------------------------------|-------|
|-------------------------------------|-6-5-3-|

Riff 2
|----------------------------|--------------------------------|
|----------------------------|--------------------------------|
|----------------------------|--------------------------------|
|----------------------------|--------------------------------|
|---------------------222233-|--------------------3-2-3-4-----|
|-00000011111111111111-------|-000000111111111111-------------|

|----------------------------|--------------------------------|
|----------------------------|--------------------------------|
|----------------------------|--------------------------------|
|----------------------------|--------------------------------|
|---------------------222233-|--------------------3-2-3-2-1-2-|
|-00000011111111111111-------|-000000111111111111-------------|

Riff 1

Bridge
Guit I
|----------------------------------|--|
|-------------------------7-10-7---|--|
|-----------------5-8-5----------8-|9-|
|---------4-7-4---------7----------|--|
|-3-6-3---------6------------------|--|
|-------5--------------------------|--|
Guit II                               |
|-------------------------5-8-5----|--|
|-----------------4-7-4----------7-|8-|
|---------2-5-2---------5----------|--|
|-1-4-1---------4------------------|--|
|-------3--------------------------|--|
|----------------------------------|--|

Riff 3
Guit I
|-----------------------|-------------|
|-----------------------|-------------|
|-----------------------|-------------|
|-------------------5---|-------------|
|-7-----7-----7-------7-|---6---6---6-|
|---0-0---0-0---0-0-----|-0---0---0---|
Guit II                               |
|-----------------------|-------------|
|-----------------------|-------------|
|-----------------------|-------------|
|-5-----5-----5-----9---|-------------|
|--------------------10-|---9---9---9-|
|---0-0---0-0---0-0-----|-0---0---0---|

Guit I
|-------------------------|-------------------|
|-------------------------|-------------------|
|-------------------------|-------------------|
|-------------------6-----|-----------------8-|
|-------6---------------6-|-------7-6-4-5-----|
|-4-4-4---4-7-4-4-4---4---|-4-4-4---------4---|
Guit II                                       |
|-------------------------|-------------------|
|-------------------------|-------------------|
|-------------------------|-------------------|
|-------------------6-----|-----------------5-|
|-------6---------------6-|-------4-3-1-2-----|
|-4-4-4---4-7-4-4-4---4---|-4-4-4---------1---|

Break

Riff 2

Riff 1

Bridge

Riff 3

Solo
|---------------------|-----------------------|---------------------|
|---------------------|-----------------------|---------------------|
|---------------------|-----------------------|---------------------|
|---------------------|-----------------------|-------------------7-|
|-5-----------5-----6-|---------5-----7-------|-------7-----4-4-4-4-|
|-3-----3-3-3-3-3-3-3-|---------------5-5-5-5-|-5-5-5-5-------------|

|---------------------|-----------------------|---------------------|
|---------------------|-----------------------|---------------------|
|---------------------|-----------------------|---------------------|
|-7-------------------|-7-----------8---------|-------4-------------|
|-5---------5-5-5-5-5-|-5-----5-5-5-4---------|-4-4-4-6-------6-6-6-|
|---------------------|-----------------------|---------------------|

|-------------------------|
|-------------------------|
|-------------------------|
|-------------------------|
|-3-----------------------|
|-1-----1-1-1-1-1-1-1-1-1-|

Riff 4
Guit I
|-------------------------|-------------------------|
|-------------------------|-------------------------|
|-------------------------|-------------------------|
|-------1-4-3-------1-4-3-|-------1-4-3-------1-4-3-| 
|-1-4-3-------1-4-3-------|-1-4-3-------1-4-3-------|
|-------------------------|-------------------------|
Guit II                                             |
|-------------------------|-------------------------|
|-------------------------|-------------------------|
|-------------------------|-------------------------|
|-3-----------------------|-(3)---------------------|
|-1-----------------------|-(1)---------------------|
|-------------------------|-------------------------|

Guit I
|-------------------------|-------------------------|
|-------------------------|-------------------------|
|-------------------------|-------------------------|
|-------2-5-4-------2-5-4-|-------2-5-4-------2-5-4-| 
|-2-5-4-------2-5-4-------|-2-5-4-------2-5-4-------|
|-------------------------|-------------------------|
Guit II                                             |
|-------------------------|-------------------------|
|-------------------------|-------------------------|
|-------------------------|-------------------------|
|-4-----------------------|-(4)---------------------|
|-2-----------------------|-(2)---------------------|
|-------------------------|-------------------------|

Guit I
|-------------------------|-------------------------|
|-------------------------|-------------------------|
|-------------------------|-------------------------|
|-------1-4-3-------1-4-3-|-------1-4-3-------1-4-3-| 
|-1-4-3-------1-4-3-------|-1-4-3-------1-4-3-------|
|-------------------------|-------------------------|
Guit II                                             |
|-------------------------|-------------------------|
|-------------------------|-------------------------|
|-------------------------|-------------------------|
|-------4-7-6-------4-6-7-|-------4-7-6-------4-7-6-|
|-4-7-6-------4-7-6-------|-4-7-6-------4-7-6-------|
|-------------------------|-------------------------|

Guit I
|-------------------------|-------------------------|
|-------------------------|-------------------------|
|-------------------------|-------------------------|
|-------2-5-4-------2-5-4-|-------2-5-4-------2-5-4-| 
|-2-5-4-------2-5-4-------|-2-5-4-------2-5-4-------|
|-------------------------|-------------------------|
Guit II                                             |
|-------------------------|-------------------------|
|-------------------------|-------------------------|
|-------------------------|-------------------------|
|-------5-8-7-------5-8-7-|-------5-8-7-------5-8-7-|
|-5-8-7-------5-8-7-------|-5-8-7-------5-8-7-------|
|-------------------------|-------------------------|

Riff 5a
|------------------------|--------------------------|
|------------------------|--------------------------|
|------------------------|--------------------------|
|-8\---------------------|--------------------------|
|-6\---------------------|-44443333-----------------|
|-6\----0-000-333-666-555|---------4444555533332222-|

|------------------------|--------------------|
|------------------------|--------------------|
|------------------------|--------------------|
|-8\---------------------|--------------------|
|-6\---------------------|-55554444-----------|
|-6\----0-000-333-666-555|---------5555666666-|


|------------------------|--------------------------|
|------------------------|--------------------------|
|------------------------|--------------------------|
|-8\---------------------|--------------------------|
|-6\---------------------|-44443333-----------------|
|-6\----0-000-333-666-555|---------4444555533332222-|

|------------------------|--------------------------|
|------------------------|--------------------------|
|------------------------|--------------------------|
|-8\---------------------|--------------------------|
|-6\---------------------|-55554444-----------------|
|-6\----0-000-333-666-555|---------5555666644443333-|

Last round:
|------------------------|--------------------------|
|------------------------|--------------------------|
|------------------------|--------------------------|
|-8\---------------------|-3---2--------------------|
|-6\---------------------|-5---4---3---4---2---1----|
|-6\----0-000-333-666-555|---------5---6---4---3----|

Riff 5b
Guit I
|------------------------|--------------------------|
|------------------------|--------------------------|
|------------------------|--------------------------|
|-8\---------------------|--------------------------|
|-6\------2---1---4---3--|-44443333-----------------|
|-6\------0---3---6---5--|---------4444555533332222-|
Guit II                                             |
|------------------------|--------------------------|
|------------------------|--------------------------|
|------------------------|--------------------------|
|-8\---------------------|--------------------------|
|-6\------2---1---4---3--|-77776666-----------------|
|-6\------0---3---6---5--|---------7777888866665555-|

Guit I
|------------------------|--------------------------|
|------------------------|--------------------------|
|------------------------|--------------------------|
|-8\---------------------|--------------------------|
|-6\------2---1---4---3--|-55554444-----------------|
|-6\------0---3---6---5--|---------5555666644443333-|
Guit II                                             |
|------------------------|--------------------------|
|------------------------|--------------------------|
|------------------------|--------------------------|
|-8\---------------------|--------------------------|
|-6\------2---1---4---3--|-88887777-----------------|
|-6\------0---3---6---5--|---------8888999977776666-|

Break
Guit I
|-------------------------------------------------|
|-------------------------------------------------|
|-------------------------------------------------|
|-2h5p2h5p2h5-4h7p4h7p4h7-------------------------|
|-------------------------2h5p2h5p2h5-3h6p3h6p3h6-|
|-------------------------------------------------|
Guit II                                           |
|-------------------------------------------------|
|-------------------------------------------------|
|-------------------------------------------------|
|-2-----------------------------------------------|
|-2-----------------------------------------------|
|-0-----------------------------------------------|

Guit I
|-------------------------------------------------|
|-------------------------------------------------|
|-------------------------2h5p2h5p2h5-5h8p5h8p5h8-|
|-1h4p1h4p1h4-4h7p4h7p4h7-------------------------|
|-------------------------------------------------|
|-------------------------------------------------|
Guit II                                           |
|-------------------------------------------------|
|-------------------------------------4h7p4h7p4h7-|
|-------------2h5p2h5p2h5-5h8p5h8p5h8-------------|
|-4h7p4h7p4h7-------------------------------------|
|-------------------------------------------------|
|-------------------------------------------------|

Riff 1

Bridge

Riff 3

Last round:

|-------------------------|------------------------|
|-------------------------|------------------------|
|-------------------------|------------------------|
|-------------------6-----|------------------------|
|-------6---------------6-|-------4-7-6-4---3---2--|
|-4-4-4---4-7-4-4-4---4---|-4-7-6-------6---5---4--|

Riff 5a

Break

|-------------------------|------------------------|
|-------------------------|------------------------|
|-------------------------|------------------------|
|-3---2-------------------|-2---1------------------|
|-5---4---3---4---2-------|-4---3---2---3---1---0--|
|---------5---6---4-------|---------4---5---3---2--|

Riff 5b
Добавлено: 17.05.2012
Другие материалы по этой песне:
  • Аккорды и текст

Страница создана 17.05.2012
http://primanota.ru/forsaken/injected-terror-chords.htm
Привет, Гость.
Предлагаем пройти революционный курс по гитаре.
Подарок от PrimaNota.Ru, забирай!