PrimaNota.ru - самый крупный в мире бесплатный архив песенных текстов, аккордов, табулатур и нот


Forsaken - Incubator - таба, видео

Регистрация Запомнить меня
Войти через:  Facebook Google Twitter Vk Yandex Mail.ru

Forsaken - Incubator - таба, видео

Печатать
Просмотров: 93
The Forsaken
“Incubator”
from album “Arts of desolation”

FROM BEERSLAYER420

/ - Slide up to
\ - Slide down to 
h – Hammer on
p – Pull off
~ - Artificial harmonic
. – Palm mute
Tuning – 1:B 2:E 3:A 4:D 5:F# 6:B


Riff 1
||----------------------------------|------------------------------------|
||----------------------------------|------------------------------------|
||----------------------------------|--------------------------------9---|
||-----9-9----10-10----9-9-------12-|-----9-9----10-10----9-9--------7-10|
||-----7-7-----8-8-----7-7-------10-|-----7-7-----8-8-----7-7-000000---8-|
||-000-----000-----000-----0-000----|-000-----000-----000----------------|

Riff 2
|-----------------------|------------------------|
|-----------------------|------------------------|
|-----4-4-----4-4-----5-|-----4-4-----4-4--------|
|-----------------------|------------------------|
|-222-----222-----222---|-222-----222-----333333-|
|-----------------------|------------------------|

Guit I
|-----------------------|------------------------|
|-----------------------|------------------------|
|-----4-4-----4-4-----5-|-----4-4-----4-4--------|
|-----------------------|------------------------|
|-222-----222-----222---|-222-----222-----333333-|
|-----------------------|------------------------|
Guit II                                          |
|-----------------------|------------------------|
|-----------------------|------------------------|
|-----------------------|------------------------|
|-----4-4-----4-4-----5-|-----4-4-----4-4--------|
|-222-----222-----222---|-222-----222-----333333-|
|-----------------------|------------------------|

Riff 1

Riff 3 (tremolo pick)
|-------------------------|
|-------------------------|
|-----------4---5---------|
|---------4-------5-------|
|-2-3-2-3-----------3-2-0-|
|-------------------------|

Riff 4 (rounds 1, 2 and 4)
|---------------------------|---------------------------|
|---------------------------|---------------------------|
|-----4-5-4-----4-7-4-------|----4-5-4-----4-7-5--------|
|-----2-3-2-----2-5-2-------|----2-3-2-----2-5-3-333333-|
|---------------------------|---------------------------|
|-000-------000-------000000|000-------000--------------|

Riff 4b (round 3)
|---------------------------|---------------------------|
|---------------------------|---------------------------|
|---------------------------|---------------------------|
|-----2-3-2-----2-5-2-------|----2-3-2-----2-5-3--------|
|-000-0-1-0-000-0-3-0-000000|000-0-1-0-000-0-3-1-111111-|
|---------------------------|---------------------------|

Riff 2
|---------------------|--------------------|
|---------------------|--------------------|
|---------------------|--------------------|
|---------------------|--------------------|
|-222-----222-----222-|-222-----222--333333|
|---------------------|--------------------|

Guit I
|-----------------------|------------------------|
|-----------------------|------------------------|
|-----4-4-----4-4-----5-|-----4-4-----4-4--------|
|-----------------------|------------------------|
|-222-----222-----222---|-222-----222-----333333-|
|-----------------------|------------------------|
Guit II                                          |
|-----------------------|------------------------|
|-----------------------|------------------------|
|-----------------------|------------------------|
|-----4-4-----4-4-----5-|-----4-4-----4-4--------|
|-222-----222-----222---|-222-----222-----333333-|
|-----------------------|------------------------|

Riff 1

Riff 3

Riff 5
Guit I
|--------------------------------------------|
|--------------------------------------------|
|--------------------------------------------|
|-3h6p3--------------------3h6p3-------------|
|-------4h7p4-5h8p5--------------4h7p4-5h8p5-|
|-------------------0-0-0-0------------------|
Guit II                                      |
|--------------------------------------------|
|--------------------------------------------|
|--------------------------------------------|
|-6h9p6--------------------6h9p6-------------|
|------7h10p7-8h11p8------------7h10p7-8h11p8|
|-------------------0-0-0-0------------------|

Guit I
|--------------------------------------------|
|--------------------------------------------|
|-----------------------4h7p4----------------|
|-3h6p3--------------------------3h6p3-------|
|-------4h7p4-5h8p5--------------------2h5p2-|
|-------------------0-0------0-0-------------|
Guit II                                      |
|--------------------------------------------|
|--------------------------------------------|
|----------------------7h10p7----------------|
|-6h9p6--------------------------6h9p6-------|
|------7h10p7-8h11p8------------------5h8p5--|
|-------------------0-0------0-0-------------|

Solo 1 X2
|-------------------------------|-------------------------------|
|-------------------------------|-------------------------------|
|-------------------------------|-------------------------------|
|-------------------------------|-------------------------------|
|-2-----------2-------2-------3-|-2-----------2-------2-------5-|
|-0---0-0-0-0-0---0-0-0---0-0-1-|-0---0-0-0-0-0---0-0-0---0-0-3-|

|-------------------------------|-------------------------------|
|-------------------------------|-------------------------------|
|-------------------------------|-------------------------------|
|-------------------------------|-------------------------------|
|-3-----------3-------3-------2-|-3-----------3-------3-------2-|
|-1---1-1-1-1-1---1-1-1---1-1-1-|-1-1-1-1-1-1-1---1-1-1---1-1-1-|

Solo 2 X2
|---------------------|--------------------|
|---------------------|--------------------|
|---------------------|--------------------|
|-2-------2----2----2-|2-------2----2----2-|
|-0-0000000-0000-0003-|0-0000000-0000-0003-|
|---------------------|--------------------|
    ......  ...  ...     ......  ...  ... 

|---------------------|--------------------|
|---------------------|--------------------|
|---------------------|--------------------|
|-3-------3----3----3-|2-------2----0----0-|
|-5-5555555-5555-5555-|3-3333333-2222-2222-|
|---------------------|--------------------|
    ......  ...  ...     ......  ...  ...

Solo 3
|---------------------|--------------------|
|---------------------|--------------------|
|---------------------|--------------------|
|---------------------|--------------------|
|-222-----222-----222-|-222-----222--333333|
|---------------------|--------------------|

|-----------------------|------------------------|
|-----------------------|------------------------|
|-----4-4-----4-4-----5-|-----4-4-----4-4--------|
|-----------------------|------------------------|
|-222-----222-----222---|-222-----222-----333333-|
|-----------------------|------------------------|

Riff 5

Riff 6
|---------------------------------|--------------------------------|
|---------------------------------|--------------------------------|
|---------------------------------|--------------------------------|
|-7-----------------------8-------|-7-----------------------8------|
|---------7-------6---------------|---------7-------6--------------|
|---5-5-5---5-5-5---5-5-5---5-5-5-|---5-5-5---5-5-5---5-5-5---5-5-5| 

Guit I
|----------------------------------|
|----------------------------------|
|-9-----8--------------------------|
|---8------------------------------|
|-----7------7-6---6---6---6---7---|
|----------------5---5---5---5---5-|
Guit II                            | X2
|----------------------------------|
|----------------------------------|
|12----11--------------------------|
|--11------------------------------|
|----10-----10-9---9---9---9---10--|
|----------------8---8---8---8---8-|

Riff 1 (break)

Riff 2

Riff 1

Riff 3

Riff 4

Riff 3

Riff 2 (break)

Big finish
|--------------------------------------------|
|--------------------------------------------|
|--------------------------------------------|
|--------------------------------------------|
|--------------------------------------------|
|-000000000000000000000000000000--etc…-------|

|--------------------------------------------||
|--------------------------------------------||
|--------------------------------------------||
|-9-----7----5-----4-----2---------9999-9999-||
|-7-----5----3-----2-----2---------7777-7777-||
|------------------------0-------------------||
Добавлено: 11.07.2012
Другие материалы по этой песне:
  • Аккорды и текст

Страница создана 11.07.2012
http://primanota.ru/forsaken/incubator-chords.htm
Привет, Гость.
Предлагаем пройти революционный курс по гитаре.
Подарок от PrimaNota.Ru, забирай!