PrimaNota.ru - самый крупный в мире бесплатный архив песенных текстов, аккордов, табулатур и нот


Forsaken - Embedded Insanity - таба, видео

Регистрация Запомнить меня
Войти через:  Facebook Google Twitter Vk Yandex Mail.ru

Forsaken - Embedded Insanity - таба, видео

Печатать
Просмотров: 107
Уроки эстрадного вокала в Санкт-Петербурге
The Forsaken
“Embedded Insanity”
from album “Arts of desolation”


/ - Slide up to
\ - Slide down to 
h – Hammer on
p – Pull off
~ - Artificial harmonic
. – Palm mute
Tuning – 1:B 2:E 3:A 4:D 5:F# 6:B
Riff 1
||---------------------------------|----------------------------------|
||---------------------------------|----------------------------------|
||---------------------------------|----------------------------------|
||---------------------------------|----------------------------------|
||-----8-7--10-7---8-7---5-7-------|-----8-7--10-7---8-7---5-7---5----|
||-0-0-----0-----0-----0-----0-000-|-000-----0-----0-----0-----0-6----|
     
|---------------------------------|----------------------------------|
|---------------------------------|----------------------------------|
|---------------------------------|----------------------------------|
|---------------------------------|----------------------------------|
|-----8-7--10-7---8-7---5-7-------|-----8-7--10-7---8-7---5-7---5----|
|-0-0-----0-----0-----0-----0-000-|-000-----0-----0-----0-----0-6----|
  
Break
|---------------------------|
|---------------------------|
|---------------------------|
|-2-2-2-2-----2---2---2-----|
|-2-2-2-2-----2---2---2-----|
|-0-0-0-0-00000---0---0-0-0-|
         
Riff 1
|---------------------------------|----------------------------------|
|---------------------------------|----------------------------------|
|---------------------------------|----------------------------------|
|---------------------------------|----------------------------------|
|-----8-7--10-7---8-7---5-7-------|-----8-7--10-7---8-7---5-7---5----|
|-0-0-----0-----0-----0-----0-000-|-000-----0-----0-----0-----0-6----|

|---------------------------------|----------------------------------|
|---------------------------------|----------------------------------|
|---------------------------------|----------------------------------|
|---------------------------------|------------------------------9\--|
|-----8-7--10-7---8-7---5-7-------|-----8-7--10-7---8-7---5-7--------|
|-0-0-----0-----0-----0-----0-000-|-000-----0-----0-----0-----0------|
  

Riff 2
|--------------------------------|----------------------------------|
|--------------------------------|----------------------------------|
|--------------------------------|----------------------------------|
|----------------------------5-4-|----------------------------------|
|-------5---------------5--------|-------5---------------4-4h5p4----|
|-3-3-3---3-3-6-5-3-3-3---3-3----|-3-3-3---3-3-6-5-3-5-6---------6-5|
  
|--------------------------------|----------------------------------|
|--------------------------------|----------------------------------|
|--------------------------------|----------------------------------|
|----------------------------5-4-|-------------------5---5---4---4--|
|-------5---------------5--------|-------5--------------------------|
|-3-3-3---3-3-6-5-3-3-3---3-3----|-3-3-3---3-3-6-5-3---3---3---3----|

Riff 1


Riff 3
|--------------------------------|----------------------------------|
|--------------------------------|----------------------------------|
|--------------------------------|----------------------------------|
|----------------------------7-6-|----------------------------------|
|-------7--------------7---------|-------7---------------6-6h7p6----|
|-5-5-5---5-5-8-7-5-5-5--5-5-----|-5-5-5---5-5-8-7-5-7-8---------8-7|
  
|--------------------------------|----------------------------------|
|--------------------------------|----------------------------------|
|--------------------------------|----------------------------------|
|----------------------------7-6-|-------------------7---7---6---6--|
|-------7--------------7---------|-------7--------------------------|
|-5-5-5---5-5-8-7-5-5-5--5-5-----|-5-5-5---5-5-8-7-5---5---5---5----|
  
Riff 2
|--------------------------------|----------------------------------|
|--------------------------------|----------------------------------|
|--------------------------------|----------------------------------|
|----------------------------5-4-|----------------------------------|
|-------5---------------5--------|-------5---------------4-4h5p4----|
|-3-3-3---3-3-6-5-3-3-3---3-3----|-3-3-3---3-3-6-5-3-5-6---------6-5|

|--------------------------------|----------------------------------|
|--------------------------------|----------------------------------|
|--------------------------------|----------------------------------|
|----------------------------5-4-|-----------------5-4--------------|
|-------5---------------5--------|-------5-------------6-5-3--------|
|-3-3-3---3-3-6-5-3-3-3---3-3----|-3-3-3---3-3-6-5-----------6-5-2--|


Riff 4 
|-------------------------------------|-----------------------------------|
|-------------------------------------|-----------------------------------|
|-------------------------------------|-----------------------------------|
|-------------------------------------|-----------------------------------|
|-------------------------------------|-----------------------------------|
|-3-3-3-3-3-3-6-6-6-5-5-5-5-5-5-2-2-2-|2-2-2-3-3-3-3-3-3-5-5-5-5-5-5-2-2-2|

|-------------------------------------|-----------------------------------|
|-------------------------------------|-----------------------------------|
|-------------------------------------|-----------------------------------|
|-------------------------------------|-----------------------------------|
|-------------------------------------|------6-6-6-6-6-6-5-5-5-5-5-5------|
|-3-3-3-3-3-3-6-6-6-5-5-5-5-5-5-2-2-2-|2-2-2-------------------------6-6-6|

Riff 1

Riff 2

Riff 5
 A5                                Bb5
|-------------------------------------|
|-------------------------------------|
|-----------------------------------7-|
|-------8-7-5-7-------8-7-5-7-8-7-5---|
|-0-0-0---------0-0-0-----------------|
|-------------------------------------|
 A5                        D5      E5
|-------------------------------------|
|--------------------------6-------5--|
|-------------------------------------|
|------8-7-5-7-------8-7-5---8-7-5----|
|-0-0-0--------0-0-0------------------|
|-------------------------------------|

Riff 6
|------------------------------------------|
|------------------------------------------|
|------------------------------------------|
|----------------------7-6---6----10-9-7-9-|
|--------8-7-5-7-----------8---------------|
|--0-0------------0-0----------------------|

|------------------------------------------|
|------------------------------------------|
|------------------------------------------|
|---------------------7-6---6--------------|
|-------8-7-5-7-----------8-------8-7-5-7--|
|--0-0-----------0-0-----------------------|

Riff 6b
Guit I
|------------------------------------------|
|------------------------------------------|
|---------------------------------------9~-|
|---------------------7-6---6----10-9-7----|
|-------8-7-5-7-----------8----------------|
|--0-0-----------0-0-----------------------|
Guit II                                    |
|------------------------------------------|
|---------------------------------------9~-|
|---------------------------------9-7-5----|
|-------7-6---6------10-9-7-9--------------|
|-----------8------------------------------|
|--0-0-----------0-0-----------------------|

Guit I
|------------------------------------------|
|------------------------------------------|
|------------------------------------------|
|-------------------7-6--------------------|
|------8-7-5-7----------8-7-5-8-7----------|
|--0-0----------0-0------------------------|
Guit II                                    |
|------------------------------------------|
|------------------------------------------|
|------------------------------------------|
|------7-6---6-----10-9-7-6---7-2----------|
|----------8----------------8---2----------|
|--0-0----------0-0-------------0----------|


Riff 7
Guit I
|----------------------------------|--------------------------------------|
|----------------------------------|--------------------------------------|
|----------------------------------|--------------------------------------|
|-2---2-------3---2----------------|---2-------3---2----------------------|
|-2-----2-----3---2--------------2-|-----2-----1---2-----------8-7--------|
|-0-0-----0-0-1-0-0-0-00-0-0-00--0-|-0-----0-0---0-0-0-00-0-/6------------|
Guit II                                                                   |
|----------------------------------|--------------------------------------|
|----------------------------------|--------------------------------------|
|----------------------------------|--------------------------------------|
|-2---2-------3---2----------------|---2-------3---2----------10-9--------|
|-2-----2-----3---2--------------2-|-----2-----1---2--------/8------------|
|-0-0-----0-0-1-0-0-0-00-0-0-00--0-|-0-----0-0---0-0-0-00-0---------------|

Riff 8
Guit I
|-------------------------------|-----------------------------------------|
|-------------------------------|-----------------------------------------|
|-------------------------------|-----------------------------------------|
|-------------------------------|-----------------------------------------|
|-7---8---7-8-7-6---------------|-7---8---7-8-7-6-7-8-5-7-----------------|
|-5-5---5-5-6-5-4---------------|-5-5---5-5-6-5-4---------8-7-------------|
Guit II                                                                   |
|-------------------------------|-----------------------------------------|
|-------------------------------|-----------------------------------------|
|-------------------------------|-----------------------------------------|
|-------------------------------|-----------------------------------------|
|-7---8---7-8-7-6---------------|-7---8---7-8-7-6---6---------------------|
|-5-5---5-5-6-5-4---------------|-5-5---5-5-6-5-4-8---7-8-5-4-------------|

Riff 7 (solo)

Riff 8 (solo)

Riff 9
|--------------------------------------|
|--------------------------------------|
|--------------------------------------|
|--------------------------------------| X2
|--------------------------------------|
|-000-000-000-000000-000-000-000-000000|

Guit I
|--------------------------------------|
|--------------------------------------|
|--------------------------------------|
|----------------------2---1---2-------|
|----------------------2---3---2-------|
|-000-000-000-323532-00--00--00--323532|
Guit II                                |
|--------------------------------------|
|--------------------------------------|
|--------------------------------------|
|---2---1---2--------------------------|
|---2---3---2-212321------------212321-|
|-00--00--00---------000-000-000-------|

Guit I
|---7---6---7--------------------------|
|---8---7---8--------------------------|
|---9---8---9--------------------------|
|---9---8---9--------------------------|
|---7---6---7--------------------------|
|-00--00--00--323532-000-000-000-323532|
Guit II                                |
|----------------------7---6---7-------|
|----------------------8---7---8-------|
|----------------------9---8---9-------|
|----------------------9---8---9-------|
|-------------212321---7---6---7-------|
|-000-000-000--------00--00--00--------|

Guit I
|-----------------------------------------|
|-----------------------------------------|
|-----------------------------------------|
|-------------------------------2---------| 
|-5-4-2---5-4-1---5-4-2---5-4-5---5-4-----|
|-----------------------------------------|
Guit II                                   | X4
|-----------------------------------------|
|-----------------------------------------|
|-4-3-----4-3-----4-3-----4-3-4-5-4-3-----|
|-----5-------4-------5-------------------|
|-----------------------------------------|
|-----------------------------------------|

Riff 1

Break
|--------------------------------------|
|--------------------------------------|
|--------------------------------------|
|--------------------------------------|
|-2-2-2-2-----2-2-2-2-2----------------|
|-0-0-0-0-00000-0-0-0-0----------------|
          ....

Riff 1

Riff 3

Riff 2

Riff 4

Riff 4b
|-------------------------------------|-----------------------------------|
|-------------------------------------|-----------------------------------|
|-------------------------------------|-----------------------------------|
|-------------------------------------|-----------------------------------|
|-------------------------------------|-----------------------------------|
|-5-5-5-5-5-5-8-8-8-7-7-7-7-7-7-4-4-4-|4-4-4-5-5-5-5-5-5-7-7-7-7-7-7-4-4-4|

|-------------------------------------|-----------------------------------|
|-------------------------------------|-----------------------------------|
|-------------------------------------|-----------------------------------|
|-------------------------------------|-----------------------------------|
|-------------------------------------|------8-8-8-8-8-8-7-7-7-7-7-7------|
|-5-5-5-5-5-5-8-8-8-7-7-7-7-7-7-4-4-4-|4-4-4-------------------------8-8-8|

Riff 5

Riff 6

Riff 6b

Riff 6c

|------------------------------------------|
|------------------------------------------|
|------------------------------------------|
|-----------7-6---6-10-9-7-9---------------|
|---8-7-5-7-----8--------------------------|
|-0--------------------------7\------------|

|------------------------------------------|
|------------------------------------------|
|------------------------------------------|
|-----------7-6---6------------------------|
|---8-7-5-7-----8---8-7-5-7----------------|
|-0----------------------------------------|

|------------------------------------------|
|------------------------------------------|
|----------------------------9-------------|
|-----------7-6---6-10-9-7-9---------------|
|---8-7-5-7-----8--------------------------|
|-0----------------------------------------|

|------------------------------------------||
|------------------------------------------||
|-10-9-7-----------------------------------||
|--------10-9-7-6-----------------------2--||
|-----------------8-7-5-8-7-5-----------2--||
|-----------------------------8-7-5-4-1-0--||
Добавлено: 09.05.2012
Другие материалы по этой песне:
  • Аккорды и текст

Страница создана 09.05.2012
http://primanota.ru/forsaken/embedded-insanity-chords.htm
Привет, Гость.
Предлагаем пройти революционный курс по гитаре.
Подарок от PrimaNota.Ru, забирай!