PrimaNota.ru - самый крупный в мире бесплатный архив песенных текстов, аккордов, табулатур и нот


Forsaken - Dethroned - таба, видео

Регистрация Запомнить меня
Войти через:  Facebook Google Twitter Vk Yandex Mail.ru

Forsaken - Dethroned - таба, видео

Печатать
Просмотров: 125
The Forsaken
“Dethroned”
from album “Arts of desolation”


/ - Slide up to
\ - Slide down to 
h – Hammer on
p – Pull off
~ - Artificial harmonic

Tuning – 1:B 2:E 3:A 4:D 5:F# 6:B

Intro
||-----------------------------------|
||-----------------------------------|
||-----------------------------------|
||-7---7---2---6---------------------|
||-5---5---2---4---------------------|
||-5---5---0---4---------6-5-3-6-5-3-|

Guit I
|-----------------------------------------------|
|-----------------------------------------------|
|-----------------------------------------------|
|-7---7---2---6---------------------------------|
|-5---5---2---4---------------------------------|
|-5---5---0---4---------6-5-3-6-5-3-6-5-3-6-5-3-|
Guit II                                         |
|-----------------------------------------------|
|-----------------------------------------------|
|-----------------------------------------------|
|-7---7---2---6---------------------------------|
|-5---5---2---4---------------------5-4---5-4---|
|-5---5---0---4---------6-5-4-6-5-4-----6-----6-|

Riff 1
|-----------------------------------|-----------------------------------|
|-----------------------------------|-----------------------------------|
|-----------------------------------|-----------------------------------|
|-7---7---2---6---6---6-------------|-7---7---2---6---6---6-------------|X2
|-5---5---2---4---4---4-------------|-5---5---2---4---4---4-------------|
|-5---5---0---4---4---4-6-5-3-6-5-3-|-5---5---0---4---4---4-6-5-3-6-5-3-|

Guit I
|-----------------------------------|-----------------------------------|
|-----------------------------------|-----------------------------------|
|-----------------------------------|-----------------------------------|
|-7---7---2---6---6---6-------------|-7---7---2---6---6---6-------------|
|-5---5---2---4---4---4-------------|-5---5---2---4---4---4-------------|
|-5---5---0---4---4---4-6-5-3-6-5-3-|-5---5---0---4---4---4-6-5-3-6-5-3-|
Guit II                                                                 |
|-----------------------------------|-----------------------------------|
|-----------------------------------|-----------------------------------|
|-7-----------6---------------------|-7--10-------6---------------------|
|-----------------------------------|-----------------------------------|
|-5-----------4---------------------|-5---8-------4---------------------|
|-----------------------------------|-----------------------------------|

Guit I
|-----------------------------------|-----------------------------------|
|-----------------------------------|-----------------------------------|
|-----------------------------------|-----------------------------------|
|-7---7---2---6---6---6-------------|-7---7---2---6---6---6-------------|
|-5---5---2---4---4---4-------------|-5---5---2---4---4---4-------------|
|-5---5---0---4---4---4-6-5-3-6-5-3-|-5---5---0---4---4---4-6-5-3-6-5-3-|
Guit II                                                                 |
|-----------------------------------|-----------------------------------|
|-----------------------------------|-----------------------------------|
|-10----------9---------------------|-10--14------13--------------------|
|-----------------------------------|-----------------------------------|
|-8-----------7---------------------|-8---12------11--------------------|
|-----------------------------------|-----------------------------------|

Riff 2
Guit I
|----------------------------------------------------|
|----------------------------------------------------|
|----------------------------------------------------|
|----------------------------------------------------|
|-------666666666666-------666666-------666666777777-|
|-0-0-0--------------0-0-0--------0-0-0--------------|
Guit II                                              |X3
|----------------------------------------------------|
|----------------------------------------------------|
|----------------------------------------------------|
|----------------------------------------------------|
|-------333333333333-------333333-------333333444444-|
|-0-0-0--------------0-0-0--------0-0-0--------------|

Last round
Guit I
|--------------------------------------|
|--------------------------------------|
|--------------------------------------|
|--------------------------------------|
|-------666666666666-------8-------7-6-|
|-0-0-0--------------0000006-0000005-4-|
Guit II                                |
|--------------------------------------|
|--------------------------------------|
|--------------------------------------|
|--------------------------------------|
|-------333333333333-------4-------3-2-|
|-0-0-0--------------0000006-0000005-4-|

Riff 1

Riff 3a
Guit I
|---------------------------------------|
|---------------------------------------|
|---------------------------------------|
|-7---7---2-----------------------------|
|-5---5---2---4444444444444-------------|
|-5---5---0-----------------6-5-3-6-5-3-|
Guit II                                 |
|---------------------------------------|
|---------------------------------------|
|---------------------------------------|
|-7---7---2-----------------------------|
|-5---5---2---7777777777777-------------|
|-5---5---0-----------------6-5-3-6-5-3-|

Riff 3b
Guit I
|---------------------------------------------|
|---------------------------------------------|
|---------------------------------------------|
|-7---7---2-----------------------------------|
|-5---5---2---5555555555555------444444-------|
|-5---5---0----------------666666------555555-|
Guit II                                       |
|---------------------------------------------|
|---------------------------------------------|
|---------------------------------------------|
|-7---7---2-----------------------------------|
|-5---5---2---8888888888888555555777777444444-|
|-5---5---0-----------------------------------|

Riff 4
Guit I
|---------------------------------------------------|
|---------------------------------------------------|
|---------------------------------------------------|
|---------------------------------------------------|
|-------7777777777777777777777777777777-------------|
|-000000-------------------------------888888555555-|
Guit II                                             | X2
|---------------------------------------------------|
|---------------------------------------------------|
|---------------------------------------------------|
|-------9999999999995555555555555555555-------------|
|--------------------------------------666666-------|
|-000000-------------------------------------888888-|

Guit I
|---------------------------------------------------|
|---------------------------------------------------|
|---------------------------------------------------|
|-------6666666666666666666666666666666777777-------|
|--------------------------------------------777777-|
|-444444--------------------------------------------|
Guit II                                             | X2
|---------------------------------------------------|
|---------------------------------------------------|
|---------------------------------------------------|
|---------------------------------------------------|
|-------6666666666666666666666666666666777777444444-|
|-444444--------------------------------------------|

Riff 2

Riff 1

Riff 3a

Riff 3b

Riff 5
Guit I
|-------------------------|-------------------------|
|-------------------------|-------------------------|
|-------------------------|-------------------------|
|-------------------------|-2-----------------------|
|-4-----------1-----------|-------------4-----------|
|---3-2-3-2-3---3-2-3-2-3-|---3-2-3-2-3---3-2-3-2-3-|
Guit II                                             |
|-------------------------|-------------------------|
|-------------------------|-------------------------|
|-------------------------|-------------------------|
|-------------------------|-------------------------|
|-1-----------------------|-4-----------1-----------|
|---3-2-3-2-3-3-3-2-3-2-3-|---3-2-3-2-3---3-2-3-2-3-|

Guit I
|-------------------------|-------------------------|
|-------------------------|-------------------------|
|-------------------------|-------------------------|
|-------------------------|-5-----------2-----------|
|-1-----------4-----------|-------------------------|
|---3-2-3-2-3---3-2-3-2-3-|---3-2-3-2-3---3-2-3-2-3-|
Guit II                                             |
|-------------------------|-------------------------|
|-------------------------|-------------------------|
|-------------------------|-------------------------|
|-------------------------|-2-----------------------|
|-------------1-----------|-------------4-----------|
|-3-3-2-3-2-3---3-2-3-2-3-|---3-2-3-2-3---3-2-3-2-3-|


Riff 6
|-----------------------------|-----------------------5--4--------|
|-----------------------------|------------------------6--5-------|
|-----------------------------|-------------------------7--6------|
|-2---3-------3--4--2---------|-----2--3-------3--4---------------|
|-2---1-------1--2--2---5-4-5-|-2~--2--1-------1--2---------------|
|-0-------0---------0---3-2-3-|-----0------0----------------------|

Solo 
|-----------------------------|-----------------------5--4--------|
|-----------------------------|------------------------6--5-------|
|-----------------------------|-------------------------7--6------|
|-----2-------2--3------------|--------2-------2--3---------------|
|-----2-------2--3------5-4-5-|-2~-----2-------2--3---------------|
|-0-------0---------0---3-2-3-|-----0------0----------------------|

Riff 1 (solo)

Riff 6

|-----------------------------|-----------------------5--4--------|
|-----------------------------|------------------------6--5-------|
|-----------------------------|-------------------------7--6------|
|-2---3-------3--4--2---------|-----2--3-------3--4---------------| X2
|-2---1-------1--2--2---5-4-5-|-2~--2--1-------1--2---------------|
|-0-------0---------0---3-2-3-|-----0------0----------------------|

Guit I
|-----------------------------|-----------------------5--4--------|
|-----------------------------|------------------------6--5-------|
|-----------------------------|-------------------------7--6------|
|-2---3-------3--4--2---------|-----2--3-------3--4---------------|
|-2---1-------1--2--2---5-4-5-|-2~--2--1-------1--2---------------|
|-0-------0---------0---3-2-3-|-----0------0----------------------|
Guit II                                                           | X2
|-----------------------------|-----------------------8--7--------|
|-----------------------------|------------------------9--8-------|
|-----------------------------|-------------------------10-9------|
|-2-----------------2---------|-----2-----------------------------|
|-2---4-------4--5--2---1-0-1-|-2~--2--4-------4--5---------------|
|-0---6---0---6--7--0---3-2-3-|-----0--6---0---6--7---------------|

Riff 4

Riff 2

Riff 1

Riff 3a
Guit I
|---------------------------------------|
|---------------------------------------|
|---------------------------------------|
|-7---7---2-----------------------------|
|-5---5---2---4444444444444-------------|
|-5---5---0-----------------6-5-3-6-5-3-|
Guit II                                 |
|---------------------------------------|
|---------------------------------------|
|---------------------------------------|
|-7---7---2-----------------------------|
|-5---5---2---7777777777777-------------|
|-5---5---0-----------------6-5-3-6-5-3-|

Guit I
|---------------------------------------|
|---------------------------------------|
|---------------------------------------|
|-7---7---2-----------------------------|
|-5---5---2---4444444444444-------------|
|-5---5---0-----------------6-5-3-6-5-3-|
Guit II                                 |
|---------------------------------------|
|---------------------------------------|
|---------------------------------------|
|-7---7---2-----------------------------|
|-5---5---2-----------------------------|
|-5---5---0---6666666666666-6-5-3-6-5-3-|

Riff 3b
Guit I
|---------------------------------------------|
|---------------------------------------------|
|---------------------------------------------|
|-7---7---2-----------------------------------|
|-5---5---2---5555555555555------444444-------|
|-5---5---0----------------666666------555555-|
Guit II                                       |
|---------------------------------------------|
|---------------------------------------------|
|---------------------------------------------|
|-7---7---2-----------------------------------|
|-5---5---2---8888888888888555555777777444444-|
|-5---5---0-----------------------------------|

Guit I
|---------------------------------------------|
|---------------------------------------------|
|---------------------------------------------|
|-7---7---2-----------------------------------|
|-5---5---2---5555555555555------444444-------|
|-5---5---0----------------666666------555555-|
Guit II                                       |
|---------------------------------------------|
|---------------------------------------------|
|---------------------------------------------|
|-7---7---2-----------------------------------|
|-5---5---2-----------------------------------|
|-5---5---0---6666666666666333333555555111111-|

Riff 7 (fade out w. solo)

|-----------------------------------||
|-----------------------------------||
|-----------------------------------||
|-7---7---2---------2---------------||
|-5---5---2---1/3---2---1---3---1---||
|-5---5---0---3/6---0---3---6---3---||
Добавлено: 17.06.2012
Другие материалы по этой песне:
  • Аккорды и текст

Страница создана 17.06.2012
http://primanota.ru/forsaken/dethroned-chords.htm
Привет, Гость.
Предлагаем пройти революционный курс по гитаре.
Подарок от PrimaNota.Ru, забирай!