PrimaNota.ru - самый крупный в мире бесплатный архив песенных текстов, аккордов, табулатур и нот


Format - Wind That Blows - аккорды и текст, таба, видео

Регистрация Запомнить меня
Войти через:  Facebook Google Twitter Vk Yandex Mail.ru

Format - Wind That Blows - аккорды и текст, таба, видео

Печатать
Просмотров: 104
Уроки эстрадного вокала в Санкт-Петербурге
Wind That Blows
Format
this song is too amazing for me to put my name on it

The Format- Wind That Blows

tuned down 1/2 step
Eb-Ab-C#-F#-Bb-Eb

E:		A:		B7:
0		0		2
0		2		0
1		2		2
2		2		1
2		0		2
0		x		x


finger picking with ornamental variations

intro - E

(Not exact- it changes slightly. longer and shorter listen to the song for exact rhythms and times)
(E) finger picking
-----------0------------------------|
-------------------------0----------|
-----------1------------------------|
-----------2-------------2----------|
-----------------0h2----------------|
------0-----------------------------|


(A) finger picking
--------------0-----------2p0----0-----2p0------0--------|
--------------2-----------2-------------2--------2-------|
|-------------2----------------------------------2-------|
---------------------2-----------2-----------------------|
|--------0--------0--------------0---------------0-------|
---------------------------------------------------------|


finger picking
verse-
E
So the wind that blows across your room,
A                                                           E
Carried cheap perfume onto your dresser.

It aimed for jewelry and for credit cards,
A                                              E
Two tickets to a film I don't remember.
     A
Oh one day you'll kiss your rabbits's nose,
                                                                           E
Pick up the phone to find I've been turned over.
A
You grab that piece of gold only to find,
                                                       E
That the smell has taken over.
                                                  A                             
    B7
Now all the things you have, they aren't the same,
                                 E
As what you hold.

                                                                               A
I'm now standing in a room that's filed with older folks,
                                                E
And they're bleeding baby, listen.

And I scream as loud as anyone,
                   A                                          E
But when asked to make a point I tend to whisper.
        A
And now highways turn to tidal waves,
                                                                        E
They're asking me to explore all of your insecurities.
A
But that wind that blows across your room is gonna set the sail,
                                 E             B7
Send me back for you.


(single strums)
E
Sometimes when sailors are sailing,
         A                                                                      
        E
They think twice about where they're anchoring in.
                                                    A
I think I could make better use of my time on land.
    E                                                                      A
I drink less cause Lord knows I could use a warm kiss,
                                                 B7
Instead of a cold goodbye.
								   A
I'm writing the folks back home to tell them,

"Hey I, yeah I'm doing alright."

(listen to song for rhythms and timing)
(strumming) variation i
--------------------------------------------------------------------------|
--------------------------------------------------------------------------|
-----9---------------9----------------------------------------------------|
-----9------7--------9-----7-------9----11--------------------------------|
-----7------7--------7-----7-------9----11--------------------------------|
------------5--------------5-------7-----9--------------------------------|

(strumming) variation ii
--------------------------------------------------------------------------|
--------------------------------------------------------------------------|
-----9---------------9----------------------------------------------------|
-----9------7--------9----11-------9-------6------7-----------------------|
-----7------7--------7----11-------9-------6------7-----------------------|
------------5--------------9-------7-------4------5-----------------------|

i X2

i
Well it's a shame what your father did to your brother's head,
                                                                       i
And he smashed it with a telephone.
           i
Your mother got scared and locked the door,
                                                                                 ii
You were only four but Lord you remember it.

So now you're scared of love.
                                                                                                ii
I'm here to tell ya love just ain't some blood on the reciever.

Love is speaking in code, it's an inside joke.
                            E5
Love is coming home.


(strumming)
E
Sometimes when sailors are sailing,
         A                                                                      
       E
They think twice about where they're anchoring in.
                                                                 A
I think that I could make better use of my time on land.
  E                                                                       A
I drink less cause lord knows I could use a warm kiss,
                                                 B7
Instead of a cold goodbye.
                                                                             A
I'm writing the folks back home to tell them,

                                                      E
"Hey I, yeah I'm doing alright.
                                         A
Yeah, I'm doing just fine.
                 B7                                                 A
This sea seems just lonely as we let her sink.
                                E
Yeah, I'm doing alright.
                                 A
Yeah, I'm doing just fine.
                   B7                                                A
This sea seems just lonely as we let her sink.

You let her sink.
                      i X4
You let her."
Добавлено: 25.02.2012
Другие материалы по этой песне:
  • Аккорды и текст

Страница создана 25.02.2012
http://primanota.ru/format/wind-that-blows-chords.htm
Привет, Гость.
Предлагаем пройти революционный курс по гитаре.
Подарок от PrimaNota.Ru, забирай!