PrimaNota.ru - самый крупный в мире бесплатный архив песенных текстов, аккордов, табулатур и нот


Format - Benson Hedgesplease Dont Leave Me With Her - таба, видео

Регистрация Запомнить меня
Войти через:  Facebook Google Twitter Vk Yandex Mail.ru

Format - Benson Hedgesplease Dont Leave Me With Her - таба, видео

Печатать
Просмотров: 82
Intro is lovely just lovely Nate singing
then gos into this
  C Pick around with as C like you here it
------------------------------------------------|
---1--1---1-------1--11111----------------------|
---0--0------0----0--00000----------------------|
---------------2-----22222----------------------|
--3--3---3--3-3--3---33333----------------------|
------------------------------------------------|

LAst week my baby hit the slopes......
------------------------------------------------|
---1--1---1-------1--11111----------------------|
---0--0------0----0--00000----------------------|
---------------2-----22222----------------------|
--3--3---3--3-3--3---33333----------------------|
------------------------------------------------|

..In the road should have been cuttin...
---333333333---------------------------------|
---000000000---------------------------------|
---000000000---------------------------------|
---000000000---------------------------------|
---222222222---------------------------------|
---333333333---------------------------------|

....got Home....na na na no at least the birds
----------------------------3333333-----------|
---1111111111---------------0000000-----------|
---0000000000---------------0000000-----------|
---2222222222---------------0000000-----------|
---3333333333---------------2222222-----------|
----------------------------3333333-----------|

..I dont know.....
--1111111------------------11111---33333333----------------|
--1111111---------111111---11111---00000000----------------|
--2222222---------000000---22222---00000000----------------|
--3333333---------222222---33333---00000000----------------|
------------------333333-----------22222222----------------|
-----------------------------------33333333----------------|

back to verse.

Bridge
---1------1-------2-------------------------------|
---1--1---1---1---3-------------------------------|
---2--0---2---0---4-------------------------------|
--3---0--3----0---5-------------------------------|
-----3-------3------------------------------------|
--------------------------------------------------|

Hope that makes sense if you need help email me
the_format_fan7@yahoo.com
Добавлено: 22.08.2013
Другие материалы по этой песне:
  • Аккорды и текст

Страница создана 22.08.2013
http://primanota.ru/format/benson-hedgesplease-dont-leave-me-with-her-chords.htm
Привет, Гость.
Предлагаем пройти революционный курс по гитаре.
Подарок от PrimaNota.Ru, забирай!