PrimaNota.ru - самый крупный в мире бесплатный архив песенных текстов, аккордов, табулатур и нот


Forfun - Historia De Verao - аккорды и текст, видео

Регистрация Запомнить меня
Войти через:  Facebook Google Twitter Vk Yandex Mail.ru

Forfun - Historia De Verao - аккорды и текст, видео

Печатать
Просмотров: 98
Historia De Verao
Forfun
(intro) A E Bm D

(riff) (guitar I)

E|------------------------------------|
B|-2---2---0---0h2---2---2---3-2-0h2--|
G|---2---2---2---------2---2----------|  (3x)
D|------------------------------------|
A|------------------------------------|
E|------------------------------------|



E|----------------|
B|----------------|
G|-2---2-0----0h2-|
D|---2------2-----|   (1x)
A|----------------|
E|----------------|


     A                      E
Que pena que não valeu a pena
             Bm                          D   E
Você dizia sempre pra eu me por no seu lugar.

    A                     E
Se lembra de meu Chevette 80?
             Bm                      D    E
Eu buzinava alto pra você se envergonhar.

F#m                             E
   Nós dois em frente ao 9, Gastando ao som do Bob
  Bm                        D           E
A gente não sabia: Tudo um dia tem um fim

           A        E                  F#m      D
E acaba sempre tudo igual ninguém esqueçe no final
     F#m           E            D
E os dias viram só recordação.
              A    E                F#m      D
Voce no seu mundinho e eu, rindo do que aconteceu
    F#m            E          D
Foi só mais uma hitória de verão...

(intro guitar I)

(intro guitar II)

    A                     E
E agora eu sei que não é hora
                   Bm                          D     E
De te abraçar bem forte e fazer o que eu não fiz.

            A                 E
E a distância,ja não tem importância
            Bm                          D
Agora que eu sei que é você que eu sempre quis

F#m                      E                 Bm
   Já chorei e já sorri, A vida se renova
            D        E
 e disso não dá pra fugir,

F#m                   E
Se foi divertido, hoje já não faz sentido
         Bm                       D       E
Que eu podia adivinhar, no que aquilo ia dar?

(solo)

(guitar I)

E|-------------------------------------------------------------|
B|-------------------------------------------------------------|
G|------6----7---9-----6---7---9-------------------------------|
D|--7-7---7----7-----7---7---7--   (repete aé o final do solo--|
A|-------------------------------------------------------------|
E|-------------------------------------------------------------|


(guitar II - fica tocando A)

(guitar II - sola e guitar I repeta o mesmo solo ate o final)

E|-------------------------------|
B|--------2---------2----------2-|
G|-----2-4-------2-4--------2-4--|
D|--4-4-4-----2-2-2------0-0-0---|
A|-------------------------------|
E|-------------------------------|


(final - 2:30)

E|--------------------|
B|---3----2----3---5--|
G|-2---2----2----2----|
D|--------------------|
A|--------------------|
E|--------------------|


              A    E                  F#m      D
Acaba sempre tudo igual ninguém esqueçe no final
     F#m            E            D
E as dias viram só recordação
              A    E                F#m      D
Você no seu mundinho e eu, rindo do que aconteceu
    F#m               E           D
Foi só mais uma história de verão
F#m              E           D
Foi só mais uma história de verão...

(refrão)

(final - guitarra solo)
E|----------------------------|
B|----------------------------|
G|14-14-14-13-13-13-14-14-14--|
D|X--X--X--X--X--X--X--X--X---|
A|12-12-12-11-11-11-12-12-12--|
E|----------------------------|
Добавлено: 22.11.2013
Другие материалы по этой песне:
  • Аккорды и текст

Страница создана 22.11.2013
http://primanota.ru/forfun/historia-de-verao-chords.htm
Привет, Гость.
Предлагаем пройти революционный курс по гитаре.
Подарок от PrimaNota.Ru, забирай!