PrimaNota.ru - самый крупный в мире бесплатный архив песенных текстов, аккордов, табулатур и нот


Forfun - Cósmica - таба, видео

Регистрация Запомнить меня
Войти через:  Facebook Google Twitter Vk Yandex Mail.ru

Forfun - Cósmica - таба, видео

Печатать
Просмотров: 121
Уроки эстрадного вокала в Санкт-Петербурге
Solo Cósmica - Forfun
Album: Polisenso (2008) 
Igor Octaviano // sugestões: igoroctaviano@gmail.com / comentários~~

Afinação: Standard EADGBE

(/) = slide up
(\) = slide down
(h) = hammer
(p) = pull off
(~) = vibrato

(solo)
|----------------------------|--------------------------9--12/14--12-12-|
|----------------------------|-----------------9--9h12------------------|
|-8h9p8--9--8h9p8------------|-8h9p8--9--9/11---------------------------|
|------------------9--9/11\9-|------------------------------------------|
|----------------------------|------------------------------------------|
|----------------------------|------------------------------------------|


|-----------------15-14-12-------------------------------------------|
|-12-14-15-14-12------------12h13p12----12---------------------------|
|------------------------------------14----14-12--12h14p12----12-----|
|----------------------------------------------------------14----14~\|
|--------------------------------------------------------------------|


|--------------------------------------------------------|
|-------------------12~12~-------------------------------|
|-----------9h11/13--------13-11-9--8h9p8---8--8h9/11~\--|
|------9h11-------------------------------9--------------|
|-9h11---------------------------------------------------|
|--------------------------------------------------------|


|------------------------------------------------------------------------------|
|-12h13p12------------------12-13-15-13--12h13p12------------------------------|
|----------12-------------------------------------12---------------------------|
|-------------14-12--12/14~--------------------------14-12--12h14p12----12-----|
|--------------------------------------------------------------------14----14\-|
|------------------------------------------------------------------------------|


|-------------------------------------------------------------------------------|
|-------------------------------------------------------------------------------|
|-----------------8--10-11--13-11/13-\---------------------9--11-12--14-12/14-\-|
|------8h9p8-9-11-----------------------------9h10p9-10-12----------------------|
|-9-11----------------------------------10-12-----------------------------------|
|-------------------------------------------------------------------------------|

final
|------------------------|-------|
|------------------------|-8-----|
|-11^12------------------|---9---|
|-------13-13~--11--9/11-|-----9-|
|------------------------|-------|
|------------------------|-------|
Добавлено: 16.08.2015
Вам также может быть интересно:
Другие материалы по этой песне:
  • Аккорды и текст

Страница создана 16.08.2015
http://primanota.ru/forfun/cosmica-chords.htm
Привет, Гость.
Предлагаем пройти революционный курс по гитаре.
Подарок от PrimaNota.Ru, забирай!