PrimaNota.ru - самый крупный в мире бесплатный архив песенных текстов, аккордов, табулатур и нот


Forfun - Alegria Compartilhada - таба, видео

Регистрация Запомнить меня
Войти через:  Facebook Google Twitter Vk Yandex Mail.ru

Forfun - Alegria Compartilhada - таба, видео

Печатать
Просмотров: 104
Intro: Em7(4)
Riff 1:                        Riff 2:

E|-----------------------|    |-----------------------|
B|-----------------------|    |-----------------------|
G|-----------------------|    |-----------------------|   (2x)
D|------------10-10-9-9--|    |---------10-10-9-9-----|
A|---3/7-7-7-------------|    |--7--7-7---------------|
E|-----------------------|    |-----------------------|


Riff 3:

E|----------------------------------------|
B|----------------------------------------|
G|-----------------------------------7h9--|
D|-----------10-10-9-9-7-7-9-9-10-10------|
A|---7--7-7-------------------------------|
E|----------------------------------------|


Riff 4:

E|----------------------------------------------------|
B|----------------------------------------------------|
G|----------------------------------------------------|
D|-----------10-10-9-9-7-7-9-9-9h10-9-7---------------|
A|---7--7-7------------------------------10-7\3-------|
E|----------------------------------------------------|


Em7(4)    C7+  Bm7(4)
Uma gargalhada explodiu do outro lado da rua
    C7+                     Bm7(4)
Em7(4)  C7+   Bm7(4)
Alguém ligou as caixas de som para que o povo usufrua
Em                       C7+
Bm7(4)     Em7(4)  C7+   Bm7(4)
Do orvalho fresco da mata, que não se vê, mas atua
   C7+                         Bm7(4)
Am7(4)  Bm7(4)
Varrendo os lares do balneário em uma noite de lua

   C7+            Bm7(4)
Alegria compartilhada
     Em7(4)    Am7(4)  Bm7(4)
É alegria redobrada

Miscigenada em cor e cultura, a massa segue pra cima
A bola, a carne, o canto e o suor: subentendida doutrina
A libertar felicidades e angústias em um escasso lazer
Senzala, casa-grande e capela iguais perante o morrer

Alegria compartilhada
É alegria redobrada
Добавлено: 04.11.2013
Другие материалы по этой песне:
  • Аккорды и текст

Страница создана 04.11.2013
http://primanota.ru/forfun/alegria-compartilhada-chords.htm
Привет, Гость.
Предлагаем пройти революционный курс по гитаре.
Подарок от PrimaNota.Ru, забирай!