PrimaNota.ru - самый крупный в мире бесплатный архив песенных текстов, аккордов, табулатур и нот


Foreverinmotion - The Rain - таба, видео

Регистрация Запомнить меня
Войти через:  Facebook Google Twitter Vk Yandex Mail.ru

Foreverinmotion - The Rain - таба, видео

Печатать
Просмотров: 99
FOREVERINMOTION

www.foreverinmotion.net
myspace.com/foreverinmotion

"The Rain"

written by Brendon Matthew Thomas - Forever In Motion Music (ASCAP)
From the album "The Beautiful Unknown"
(c) 2007 111 Records, Inc.


TUNING: E A D G C E
(tune the B string up a half step)

CHORD STRUCTURES OF "THE RAIN"

 F    G     A     C
--0  --0   --0     --0-|
--0  --0   --0     --0-|
--0  --0   --0     --0-|
--3  --5   --7     --2-|
--3  --5   --7     --3-|
--1  --3   --5     --3-|

v = down strum
^ = up strum
h = hammer on
p = pull off
// = slide up
\\ = slide down


OPENING RIFF

A. (4/4 time)

-------0-----------0-----------0--------------------|
------0-0---------0-0---------0-0------0------0-----|
----10---10-----10---10-----10---10-----10------10--|
--10-------10-10-------10-10------10-10-----10------|
-8-----------8-----------0----------0------7--------|
----------------------------------------------------|


B. (4/4 time)

-------0-----------0----------10--------10-----------|
------0-0---------0-0--------0--0------0--0----------|
----10---10-----10---10-----0----0----0----0---------|  (Riff A, RIff B, repeat A x3,
--10-------10-10-------10--9------9--9------9--------|   then go to riff C)
-8-----------8-----------10--------10----------------|
-----------------------------------------------------|


C. (4/4 time)

-------0----------0----------10--------10----|
------0-0--------0-0--------0--0------0--0---|
-----9---9------9---9------0----0----0----0--|
---10-----10--10-----10--9-------9--9------9-|
-10---------10---------10---------10---------|
---------------------------------------------|


D. (3/4 time)

-----0-------0--------0--------0--|
----0-0-----0-0------0-0------0-0-|
---0-------0--------0--------0----|
--7-------9-------10-------10-----|
-8------10------12-------12-------|
----------------------------------|


-----0--------0-------10--------10--|
----0-0------0-0-----0--0------0--0-|
---0--------0-------0--------0------|
--7-------10-------9--------9-------|
-8------12-------10-------10--------|
------------------------------------|


-----0-------0--------0--------0--|
----0-0-----0-0------0-0------0-0-|
---0-------0--------0--------0----|
--7-------9-------10-------10-----|
-8------10------12--------0-------|
----------------------------------|


-------0--------0------|
------0-0------0-0-----|
-----9--------9------9-|
---10-------10-------9-|
-10-------10--------10-|
-----------------------|


RIFF # 2

( 4/4 time - listen for timing and and subtleties)


            v v^  v   v                   v v^ v   v            v v^ v ^ v
------------0-----0---0-------------------0----0---0-------0----0--0-0-0-0---|
------------0-----0---0----------------0--0----0---0--------0---0--0-0-0-0---|
------------2-----0h2-2------------0h2----0----0---0---------0--0--0-0-0-0---|
-0h2p0------2-----2---2----2h3p2p0--------3----3---3-----3----0-2--3-2-0-2---|
-------3p0--0-----0---0--0----------------3----3---3----3-------3--3-3-3-3---|
------------------------------------------1----0h1-1---1---------------------|

     v v^ v  v  v               v  v^ v   v                     v v^ v   v
0----0----0-----0---------------0-----0---0---------------------0----0---0--|
-0---0----0-----0---------------0-----0---0-------------------0-0----0---0--|
-----0----0-----0---------------2-----0h2-2//5------------0h2---0----0---0--|
---0-2----0-----0----0h2po------2-----2---2//5----2h3p2p0-------3----3---3--|
-----3----3-----2--0-------3p0--0-----0---0-----0---------------3----3---3--|
----------3-----3-----------------------------------------------1----0h1-1--|

v v^v^    v v v v^v^ vv v^ v v v v^v^ v v v^
0---------0----------------0-----------------------0----------------|
0---------0----------------0----------------------0-0------0--------|
0---------0----------------0---------------------0----------0-------|
3---------2----------------0--------------------3--------3----------|
3---------3----------------2-------------------3------0-0-----2//5--|
1---------3----------------3------------------1---------------------|

    v   v  v
-0--0------0--|
--0-0------0--|
----0------0--|
----0------0--|
----3------2--|
----3------3--|
Добавлено: 22.05.2012
Вам также может быть интересно:
Другие материалы по этой песне:
  • Аккорды и текст

Страница создана 22.05.2012
http://primanota.ru/foreverinmotion/the-rain-chords.htm
Привет, Гость.
Предлагаем пройти революционный курс по гитаре.
Подарок от PrimaNota.Ru, забирай!