PrimaNota.ru - самый крупный в мире бесплатный архив песенных текстов, аккордов, табулатур и нот


Forever The Sickest Kids - Uh Huh - таба, видео

Регистрация Запомнить меня
Войти через:  Facebook Google Twitter Vk Yandex Mail.ru

Forever The Sickest Kids - Uh Huh - таба, видео

Печатать
Просмотров: 96
this is my first tab... it sounds good to me!
theres no guitar playing till about 24 seconds into the song then it comes in with....

intro
-------------------------------------------|
-------------------------------------------|
------6------------------------------------|  x4
---6--6--8---------------------------------|
---6--4--8---4---4-------------------------|
---4-----6--6-6-6-6------------------------|

verse                (this is played kinda fast)
--------------------------------------|
--------------------------------------|
------------6-------------------------|
--866666666--88888888-----------------| x2
--------------------------------------|
--------------------------------------|

Chorus
----------------------------------------------|
----------------------------------------------|
---66666666----------88888888-----------------|  x2
---66666666-44444444-88888888-66-XXX-66-XXX---|
---44444444-44444444-66666666-66-XXX-66-XXX---|
------------22222222----------44-XXX-44-XXX---|

theres this little thing after the first chorus
----------------|
----------------|
----------------|
----------------|
-----4--4---4---|
-4-4---6-6-6-6--|

after that little part above there isnt any guitar for a min then... this is played 
next chorus two times.... listen to the song to figure out when to play it.. i think it 
at about 1:16 into the song.. its kinda hard to hear so listen closely.... not sure if its correct.
-------4-----|
------6------|
-----6-------|  x2
----6--------|
-------------|
-------------|

THEN YOU PLAY CHORUS TWO MORE TIMES

after the second chorus is over you play this...
-----------------------|
-----------------------|
-----------------------|  x2
-----------------------|
-------4------4~-------|
-4-4-4--6-6-6----------|

-------------------------|
-------------------------|
--------6-------6--------|  x4
--6-6-6-6-8-8-8-6--------|
--6-6-6-4-8-8-8-4--------|
--4-4-4---6-6-6----------|

--------------------------------------------|
--------------------------------------------|
--------------------------------------------|  x4
--------6-66666666--------------------------|
--4~-6~-4-44444444--------------------------|
--2~-4~-------------------------------------|

--44-66------|  play this part like that the 3rd and 4th time...
--22-44------|

---------------------------------------------------|
---------------------------------------------------|
---------------------------------------------------|  X2
---6666666666666666--------------------------------|
---4444444444444444-66666666--66-XXX-66-XXX--------|
--------------------44444444--44-XXX-44-XXX--------|

THEN PLAY CHORUS x4

And thats about it... im not sure if this is 100% correct... but most of it is.. and 
i said im new to this.... this is the best i could do...

anyways enjoy!
Добавлено: 09.03.2012
Другие материалы по этой песне:
  • Аккорды и текст

Страница создана 09.03.2012
http://primanota.ru/forever-the-sickest-kids/uh-huh-chords.htm
Привет, Гость.
Предлагаем пройти революционный курс по гитаре.
Подарок от PrimaNota.Ru, забирай!