PrimaNota.ru - самый крупный в мире бесплатный архив песенных текстов, аккордов, табулатур и нот


Forever The Sickest Kids - That For Me - таба, видео

Регистрация Запомнить меня
Войти через:  Facebook Google Twitter Vk Yandex Mail.ru

Forever The Sickest Kids - That For Me - таба, видео

Печатать
Просмотров: 105
Band: Forever the Sickest Kids.
Song: That For Me.
Album: Underdog Alma Mater.
Tunning: Eb Standard. (half a step down)

             This Tab was done by watching JCcovers2 video on youtube.
             Verse and Chorus are not the exact amount strummed, listen to song for the 
amount.

Intro
e|-----------------------------------------------|
B|-----------------------------------------------|
G|------5555-----------------5555----------------|
D|-3-3--5555--2-2--3333-3-3--5555--2-2--7-7--5-5-|
A|-3-3--3333--2-2--3333-3-3--3333--2-2--7-7--5-5-|
E|-1-1--------0-0--1111-1-1--------0-0--5-5--3-5-|


Verse
e|-----------------------------------------------|
B|-----------------------------------------------|
G|-------------555555555555----------------------|
D|-3333333333--555555555555--555555555555--7777--|
A|-3333333333--333333333333--555555555555--7777--|
E|-1111111111----------------333333333333--5555--|
PM ..........  ............  ............  ....

e|-----------------------------------------------|
B|-----------------------------------------------|
G|------------------5555555555-------------------|
D|-5555--333333333--5555555555--5555555555~------|
A|-5555--333333333--3333333333--5555555555~------|
E|-3333--111111111--------------3333333333~------|
PM ....  .........  ..........  .........

e|-----------------------------------------------|
B|-----------------------------------------------|
G|-------5555--------5555-5-5--------------------|
D|-3333--5555--7777--5555-5-5--------------------|
A|-3333--3333--7777--3333-3-3--------------------|
E|-1111--------5555------------------------------|

e|-----------------------------------------------|
B|-----------------------------------------------|
G|-------------5555555555------------------------|
D|-3333333333--5555555555--55555555555---7777----|
A|-3333333333--3333333333--55555555555---7777----|
E|-1111111111--------------33333333333---5555----|
PM ..........  ..........  ...........

e|-----------------------------------------------|
B|-----------------------------------------------|
G|-------------------55555555--------------------|
D|-5555--3333333333--55555555--55555555--7-7--5--|
A|-5555--3333333333--33333333--55555555--7-7--5--|
E|-3333--1111111111------------33333333--5-5--3--|
PM       ..........  ........  ........


Chorus
e|-----------------------------------------------|
B|-----------------------------------------------|
G|---------555555--------------------5555555-----|
D|-333333--555555--7777777--3333333--5555555-----|
A|-333333--333333--7777777--3333333--3333333-----|
E|-111111----------5555555--1111111--------------|

e|-----------------------------------------------|
B|-----------------------------------------------|
G|-------------------------5555------------------|
D|-7777777--33333333--3-3--5555--2-2--7777--5555-|
A|-7777777--33333333--3-3--3333--2-2--7777--5555-|
E|-5555555--11111111--1-1--------0-0--5555--3333-|

e|-----------------------------------------------|
B|-----------------------------------------------|
G|------5555-------------------------------------|
D|-3-3--5555--22-2-2--7~-5~----------------------|
A|-3-3--3333--22-2-2--7~-5~----------------------|
E|-1-1--------00-0-0--5~-3~----------------------|


Second Verse
e|-----------------------------------------------|
B|-----------------------------------------------|
G|------------------------------55555------------|
D|-555555--777777--555--333333--55555--55555-----|
A|-555555--777777--555--333333--33333--55555-----|
E|-333333--555555--333--111111---------33333-----|
PM ......  ......  ...  ......  .....  .....

e|-----------------------------------------------|
B|-----------------------------------------------|
G|--------------------5-5-5/7/5------------------|
D|-777--555--3-3-3-3--5-5-5/7/5--5-5-5-5---------|
A|-777--555--3-3-3-3--3-3-3/5/3--5-5-5-5---------|
E|-555--333--1-1-1-1-------------3-3-3-3---------|
PM ...  ...

e|-----------------------------------------------|
B|-----------------------------------------------|
G|--------------------5-5-5/7/5------------------|
D|-7-7-7--5-5--3-3-3--5-5-5/7/5--5555--77--5-----|
A|-7-7-7--5-5--3-3-3--3-3-3/5/3--5555--77--5-----|
E|-5-5-5--3-3--1-1-1-------------3333--55--3-----|


Chorus                           Last Time End With
e|-----------------------------|-----------------|
B|---------------------------X4|-----------------|
G|----------5555555------------|-----------------|
D|-3333333--5555555--7777777---|---333333~-------|
A|-3333333--3333333--7777777---|---333333~-------|
E|-1111111-----------5555555---|---111111~-------|


Build up thingy
e|-----------------------------------------------|
B|------------------------------------------X2---|
G|----------5555555------------------------------|
D|-3333333--5555555--5555555--7777777--5555------|
A|-3333333--3333333--5555555--7777777--5555------|
E|-1111111-----------3333333--5555555--3333------|
PM .......  .......  .......  .......  ....

e|-----------------------------------------------|
B|-----------------------------------------------|
G|------5555-----------------------5555----------|
D|-3-3--5555--5-5--777--555---3-3--5555--5-5--7--|
A|-3-3--3333--3-3--777--555---3-3--3333--5-5--7--|
E|-1-1--------3-3--555--333---1-1--------3-3--5--|

e|-----------------------------------------------|
B|-----------------------------------------------|
G|-------55555-----------------------------------|
D|-2222--55555--77777--5555-5-5------------------|
A|-2222--33333--77777--5555-3-3------------------|
E|-0000---------55555--3333-3-3------------------|


Last Chorus
e|-----------------------------------------------|
B|-----------------------------------------------|
G|---------555555--------------------5555555-----|
D|-333333--555555--7777777--3333333--5555555-----|
A|-333333--333333--7777777--3333333--3333333-----|
E|-111111----------5555555--1111111--------------|
                                       End On.
e|-----------------------------------|-----------|
B|-----------------------------------|-----------|
G|-------------------------5555------|-----------|
D|-7777777--33333333--3-3--5555--2-2-|----3------|
A|-7777777--33333333--3-3--3333--2-2-|----3------|
E|-5555555--11111111--1-1--------0-0-|----1------|


Tab Done By Jessica (JessicaGonzo) Let me know if there is any corrections needed.
Добавлено: 09.06.2012
Другие материалы по этой песне:
  • Аккорды и текст

Страница создана 09.06.2012
http://primanota.ru/forever-the-sickest-kids/that-for-me-chords.htm
Привет, Гость.
Предлагаем пройти революционный курс по гитаре.
Подарок от PrimaNota.Ru, забирай!