PrimaNota.ru - самый крупный в мире бесплатный архив песенных текстов, аккордов, табулатур и нот


Forever The Sickest Kids - Playing With Fire - таба, видео

Регистрация Запомнить меня
Войти через:  Facebook Google Twitter Vk Yandex Mail.ru

Forever The Sickest Kids - Playing With Fire - таба, видео

Печатать
Просмотров: 190
Tabbed by Nicole S.

I did this all by ear and it's my first tab ever so sorry if it's a little off!!


Asus: 002200
Bsus: 024400
C#sus: 046600
E: 022100 



INTRO: option 1

|--------------------------------------------------------------------------|
|--------5--------5--------------5--------4--------------5--------5--------|
|-----4--------4--------4-----4--------4--------4-----4--------4--------4--|
|--6--------6--------6-----6--------6--------6-----6--------6--------6-----|
|--------------------------------------------------------------------------|
|--------------------------------------------------------------------------|
   You...                  Crazy...                Alright...         Me
   Everyone...             Know...                 Cheating...        Me
|-------------------------|
|--------5--------4-------|
|-----4--------4-------4--|
|--6--------6--------6----|
|-------------------------|     
|-------------------------|
        
                 I'm..
           
|--------------0-------------------------------0--------------|
|--------------0-------------------------------0--------------|
|--------------9-------------------------------9--------------|
|--------------9--(x16)------------------------9--(x16)-------|
|--------------7-------------------------------6--------------|
|--------------0-------------------------------0--------------|
               sucker...                     ..liar.
    I'm.. with danger...                     ..fire.

|--0----0-|
|--0----0-|
|--6----2-|
|--6----2-|
|--4----0-|
|--0----0-|

INTRO: option 2
      Palm muted       
|------------0------------0------------0-------------0--------------------|
|------------0------------0------------0-------------0--------------------|
|------------9------------9------------6-------------1--------------------|
|------------9-(x8)-------9-(x8)-------6-(x6)--------2-(x8)---------------|
|------------7------------6------------4-------------2--------------------|
|------------0------------0------------0-------------0--------------------|
             You...       crazy...     alright...    me.
             Everyone...  know...      cheating...   me.

|--------------0-------------------------------0--------------|
|--------------0-------------------------------0--------------|
|--------------9-------------------------------9--------------|
|--------------9-(HOLD)------------------------9-(HOLD)-------|
|--------------7-------------------------------7--------------|
|--------------0-------------------------------0--------------|
               sucker...                     ..liar.
    I'm.. with danger...                     ..fire.


|--0----0-|
|--0----0-|
|--6----2-|
|--6----2-|
|--4----0-|
|--0----0-|

VERSE 1:

E C#sus Asus (x2)

     E
   I know I could do better, 

but better is just whatever
         C#sus
When you find the one you love,
           Asus                    E
it doesn't matter if they tear you apart

Taking shots with every guy at the bar, 
       C#sus                 Asus                   E
Taking photos of herself top down in the back of my car

I can't say that she doesn't get to me
Bsus                     A         
  I can't say it doesn't rip right through me
  E
I know I could do better, 

but better is just whatever
         C#sus
When you find the one you love, 
           Asus                    E     Bsus           
it doesn't matter if they tear you apart

CHORUS:

    E     Asus        C#sus    Bsus            
She hates me, but she wants me inside,
E               Asus               C#sus  Bsus           E  Asus
I know, I know, I know, I know, I'm         playing with fire
             C#sus      Bsus
'Cause she's out of her mind
E               Asus                C#sus Bsus           E  Asus
I know, I know, I know, I know, I'm         playing with fire, 
C#sus Bsus           E  Asus
        playing with fire
C#sus  Bsus

VERSE 2:

         E
From the first time that I saw her, 

I knew that I was in love
        C#sus
Got her name tattooed,
        Asus                    E
Got the mark of the beast on my arm
 
Down dirty likes to roll in the mud
      C#sus               Asus                  E
Got a thirst for sweat an insatiable hunger for blood

Her curves they speak right to me
Bsus            Asus
  Her eyes they see right through me
  E
I know I could do better, 
   
but better is just whatever
         C#sus
When you find the one you love, 
           Asus                    E     Bsus
it doesn't matter if they tear you apart

CHORUS:

    E     Asus        C#sus    Bsus            
She hates me, but she wants me inside,
E               Asus               C#sus  Bsus           E  Asus
I know, I know, I know, I know, I'm         playing with fire
             C#sus      Bsus
'Cause she's out of her mind
E               Asus                C#sus Bsus           E  Asus
I know, I know, I know, I know, I'm         playing with fire, 
C#sus Bsus           E  Asus
        playing with fire
C#sus  Bsus

BRIDGE:
E             Asus  Bsus         C#sus    E  Asus  Bsus  C#sus
Can't trust a liar, can't beat a cheater 
E             Asus  Bsus         C#sus    E  Asus  Bsus  C#sus
Can't trust a liar, can't beat a cheater 


  strum 1x
|
|    E     Asus    C#sus        Bsus
|She loves to take advantage of me
|E                 Asus                C#sus
|I don't, I don't, I don't to know why 
|Bsus              E    Asus
|I love her, but I love her
|      C#sus      Bsus 
|I'm a sucker for pain,
|E               Asus                
|I know, I know, I know, I know, I'm...

C#sus Bsus. (cut off) Bsus

CHORUS:
    E     Asus        C#sus    Bsus            
She hates me, but she wants me inside,
E               Asus               C#sus  Bsus           E  Asus
I know, I know, I know, I know, I'm         playing with fire
             C#sus      Bsus
'Cause she's out of her mind
E               Asus                C#sus Bsus           E  Asus
I know, I know, I know, I know, I'm         playing with fire, 
C#sus Bsus           E  Asus
        playing with fire

C#sus Bsus

E             Asus  Bsus         C#sus    
Can't trust a liar, can't beat a cheater 

E               Asus                C#sus  Bsus     Asus
I know, I know, I know, I know, I'm         

E             Asus  Bsus         C#sus    
Can't trust a liar, can't beat a cheater 

E               Asus                C#sus  Bsus     Asus  E
I know, I know, I know, I know, I'm         playing with fire
Добавлено: 01.12.2013
Вам также может быть интересно:
Другие материалы по этой песне:
  • Аккорды и текст

Страница создана 01.12.2013
http://primanota.ru/forever-the-sickest-kids/playing-with-fire-chords.htm
Привет, Гость.
Предлагаем пройти революционный курс по гитаре.
Подарок от PrimaNota.Ru, забирай!