PrimaNota.ru - самый крупный в мире бесплатный архив песенных текстов, аккордов, табулатур и нот


Forever The Sickest Kids - Men In Black - таба, видео

Регистрация Запомнить меня
Войти через:  Facebook Google Twitter Vk Yandex Mail.ru

Forever The Sickest Kids - Men In Black - таба, видео

Печатать
Просмотров: 164
Авторы: Terri McFaddin, Will Smith, Patrice Rushen, Freddie Washington

Hey this is a cool song and no one has gotten the tablature correct.

This tab is in Drop D Tuning.
Listen to the song for strumming pattern.

--GUITAR 1--

E|-------------------------------------------------|
B|-------------------------------------------------|
G|-------------------------------------------------|
D|-----3-------10------11-------8------------------|
A|-----3-x8----10-x8---11--x8---8--x8--------------|
D|-----3-------10------11-------8------------------|

                    here come the
----GUITAR 2------

       E|--------------------8-8-8-8-8-8-8-8---10-10-10-10-|
       B|--6-6-6-6-6-6-6-6---------------------------------|
       G|--------------------------------------------------|
       D|--------------------------------------------------|
       A|--------------------------------------------------|
       D|--------------------------------------------------|


      E|----10-10-10-10----6-8-6-------------------------||
      B|----------------------------10-9--6--------------||
      G|-------------------------------------------------|| *
      D|-------------------------------------------------||    x2
      A|-------------------------------------------------|| *
      D|-------------------------------------------------||


--GUITAR 1----


E|----------------------------||
B|----------------------------||
G|----------------------------|| *
D|--3---------6---8--6----3---||      x2
A|--3---/6-8--6---8--6----3---|| *
D|--3---------6-- 8--6----3---||


--GUITAR 2--

        e|------------------------------------|
        B|-----6-h9-9-9-9-(9)--6--9-9(F^)-----|
        G|------------------------------------|
        D|------------------------------------|
        A|------------------------------------|
        D|------------------------------------|

        e|--------------------9--8---------|
        B|-----6-h9-9-9-9-6----------------|
        G|---------------------------------|
        D|---------------------------------|
        A|---------------------------------|
        D|---------------------------------|

        e|--------------------------------------|
        B|-----6-h9-9-9-9-(9)--6--9-9(F^)-------|
        G|--------------------------------------|
        D|--------------------------------------|
        A|--------------------------------------|
        D|--------------------------------------|

        e|------------------9--8--6-------------|
        B|-----6-h9-9-9-9-------------9--6------|
        G|--------------------------------------|
        D|--------------------------------------|
        A|--------------------------------------|
        D|--------------------------------------|
Добавлено: 26.06.2012
Другие материалы по этой песне:

Страница создана 07.03.2012
http://primanota.ru/forever-the-sickest-kids/men-in-black-chords.htm
Привет, Гость.
Предлагаем пройти революционный курс по гитаре.
Подарок от PrimaNota.Ru, забирай!