PrimaNota.ru - самый крупный в мире бесплатный архив песенных текстов, аккордов, табулатур и нот


Forever Never - Reversal - таба, видео

Регистрация Запомнить меня
Войти через:  Facebook Google Twitter Vk Yandex Mail.ru

Forever Never - Reversal - таба, видео

Печатать
Просмотров: 150
Reversal as performed by Forever Never from their album Aporia

Tabbed by: breadtruck
Email: vegas_poker101@yahoo.co.uk

Tuning: Drop A on a seven string (AEADGBE)

Tabbed out for 1 guitar.


intro riff 1
e|--------------------------------------------------------------------|
B|--------------------------------------------------------------------|
G|--------------------------------------------------------------------|
D|---------------------------------------------------7h10-------------|
A|------------------5h7------5-------------------5h7-----------5------| x2
E|-----5h8-5----5h8------------3--------5h8-5--------------------3----|
A|-0--0------00---------00-3-----3--0--0------00----------00-3-----3--|
      .      .                         .      .
e|-----------|
B|-----------|
G|-----------|
D|-----------|
A|-----------|
E|-----------|
A|--0-1-0-1--|
    .   .

intro riff 2
e|--------------------------------------------------------------|
B|--------------------------------------------------------------|
G|--------------------------------------------------------------|
D|----5/7------5/7--7/101010-77-----5/7------5/7--7/101010\7-7--|
A|-0--x/x---0--x/x--x/x-x-x--xx--0--x/x---0--x/x--x/x-x-x-\x-x--|
E|-0--3/5---0--3/5--5/8-8-8--55--0--3/5---0--3/5--5/8-8-8-\5-5--|
A|-0--------0--------------------0--------0---------------------|

e|--------------------|
B|--------------------|
G|--------------------|
D|--------------------|
A|-5--5/7--3--2-3--0--|
E|-5--5/7--3--2-3--0--|
A|-5--5/7--3--2-3--0--|


verse 1
e|---------------------------|
B|---------------------------|
G|---------------------------|
D|---------------------------|
A|-------------5--5/7--3--1--|
E|-0-0---0-0---5--5/7--3--1--|
A|-0-0---0-0---5--5/7--3--1--|
   . .   . .


chorus (strumming not shown)
e|------------------------------------------|
B|------------------------------------------|
G|-5--7-5-7--12--14--12--5--7-5-7-----------|
D|-x--x-x-x--x---x---x---x--x-x-x--9--10-5--|
A|-3--5-3-5--10--12--10--3--5-3-5--x--x--x--|
E|---------------------------------7--8--3--|
A|------------------------------------------|

e|------------------------------------------|
B|------------------------------------------|
G|-5--7-5-7--12--14--12--5--7-5-7-----------|
D|-x--x-x-x--x---x---x---x--x-x-x--9--10-9--|
A|-3--5-3-5--10--12--10--3--5-3-5--x--x--x--|
E|---------------------------------7--8--7--|
A|------------------------------------------|


repeat intro riff 1


verse 2
e|----------------------------------------------------|
B|----------------------------------------------------|
G|----------------------------------------------------|
D|-------------7-00-9-00-10-------------7-00-9-00-10--|
A|----------------------------------------------------|
E|-00-00000-00--------------00-00000-00---------------|
A|-00-00000-00--------------00-00000-00---------------|
   .. ..... ..   ..   ..    .. ..... ..   ..   ..
e|----------------------------------------------------|
B|----------------------------------------------------|
G|----------------------------------------------------|
D|-------------7-00-9-00-10---------------------------|
A|----------------------------------------------------|
E|-55-55555-55--------------33-33333-33---------------|
A|-55-55555-55--------------33-33333-33--0-1-0-1-0-1--|
   .. ..... ..   ..   ..    .. ..... ..  .   .   .

e|-----------------------------|
B|-----------------------------|
G|----------------5----7----9--|
D|-7-00-9-00-10-0---00---00----|
A|-----------------------------|
E|-----------------------------|
A|-----------------------------|
     ..   ..    .   ..   ..


repeat chorus


bridge
e|----------------------------|     e|--------------|
B|----------------------------|     B|--------------| 
G|------------2------------3--|     G|--------------|
D|------------2------------3--|     D|--------------|
A|------------0------------1--| x4  A|--------------|
E|------------0------------1--|     E|--------------|
A|-00-0000-00---00-0000-00----|     A|-0-1-0-1/4-4--|
   .. .... ..   .. .... ..
e|--------------------------------------------|
B|--------------------------------------------|
G|--------------------------------------------|
D|--------------------------------------------|
A|--------------------------------------------| x4 
E|--------------------------------------------|
A|-0-0-000-0-1-0-000-0-0-0-1-000-1-000-0-0-1--|
   . . ... .   . ... . . .   ...   ... . .


repeat chorus

repeat intro riff 1

And you're done. :)

************************************

| /   slide up
| \   slide down
| h   hammer-on
| p   pull-off
| ~   vibrato
| +   harmonic
| x   Mute note
| b   Bend
| pb  Pre-bend
| br  Bend release
| pbr Pre-bend release
| brb Bend release bend

************************************
Добавлено: 15.05.2012
Другие материалы по этой песне:
  • Аккорды и текст

Страница создана 15.05.2012
http://primanota.ru/forever-never/reversal-chords.htm
Привет, Гость.
Предлагаем пройти революционный курс по гитаре.
Подарок от PrimaNota.Ru, забирай!